PrimaNota.ru - самый крупный в мире бесплатный архив песенных текстов, аккордов, табулатур и нот


Lisa Miskovsky - Judas Kiss - аккорды и текст, видео

Регистрация Запомнить меня
Войти через:  Facebook Google Twitter Vk Yandex Mail.ru

Lisa Miskovsky - Judas Kiss - аккорды и текст, видео

Печатать
Просмотров: 58
Judas Kiss
Lisa Miskovsky
I tried with the lyrics... Let me know of any corrections, thanks!

ORDER: I V1 C INT V2 C O

[INTRO]

D/U = Down/upstroke

   D   D     D   D   D U D U     U D U D U D     D   D   D U D U     U D U D U D DU
e|---------|-----0-----0-----|-----------------|-----0-----0-----|------------------|
B|---------|-----0-----0---3-|---3-3-3-3-3-----|-----0-----0---3-|---3-3-3-3-3------|
G|---------|-----0-----0---0-|---0-0-0-0-0-----|-----0-----0---0-|---0-0-0-0-0------|
D|-----0h2-|-----2-----0---4-|---4-4-4-4-4-----|-----2-----0---4-|---4-4-4-4-4------|
A|-0h2-----|-----2-----2---5-|---5-5-5-5-5-0h2-|-----2-----2-----|---5-5-5-5-5-0-22-|
E|---------|-0---0---0-0-0---|-----------------|-0---0---0-0-0---|------------------|
   3   4     1   2   3   4     1   2   3   4     1   2   3   4     1   2   3   4
             Em            D                     Em            D

   D   D   D U D U     U D U D U D U   D   D U   U D U     U D U   U D U
e|-----0-----0-----|-----------------|-------3-------3-|-------3---------|
B|-----0-----0---3-|---3-3-3-3-3-----|-------3---3---3-|---3---3---3-----|
G|-----0-----0---0-|---0-0-0-0-0-----|-0---0-------0---|-----0-------0-2-|
D|-----2-----0---4-|---4-4-4-4-4-0-0-|-0---0-------0---|-----0-------0---|
A|-----2-----2---5-|---5-5-5-5-5-----|-3---3-------3---|-----3-------3---|
E|-0---0---0-0-0---|-----------------|-----------------|-----------------|
   1   2   3   4     1   2   3   4     1   2   3   4     1   2   3   4
   Em            D                     Csus2


[VERSE 1]
Em7        G                   Csus2
   Give me lots of joy now I'm leaving
Em7          G                   Csus2
   You can't hurt me now, what a feeling.
               Em7
   It drags me down
         G                          Csus2
   I can touch the stars, reach the ceiling.
Em7      G                    Csus2
   All I wanted to be was your     friend.
             Am7  Am7/G         D/F#
   So let us laugh     once more
                  Am7 Am7/G        D/F#
   Cause you were made     to adore


[CHORUS 1]
                 Cadd9 G        Dsus4 D
You gave a Judas Kiss, yeah yeah
                 Cadd9 G        Dsus4 D
You gave a Judas Kiss, yeah yeah
                 Cadd9 G        Dsus4 D
And I just felt this bliss, yeah yeah
                 Cadd9 G
but it was Judas' Kiss, yeah yeah


[INTERLUDE]
   D   D   D U D U     U D U D U D DU  D   D   D U D U     U D U D U D U
e|-----0-----0-----|-----------------|-----0-----0-----|-----------------|
B|-----0-----0---3-|---3-3-3-3-3-----|-----0-----0---3-|---3-3-3-3-3-----|
G|-----0-----0---0-|---0-0-0-0-0-----|-----0-----0---0-|---0-0-0-0-0-----|
D|-----2-----0---4-|---4-4-4-4-4-----|-----2-----0---4-|---4-4-4-4-4-0-0-|
A|-----2-----2---5-|---5-5-5-5-5-0-22|-----2-----2-----|---5-5-5-5-5-0-0-|
E|-0---0---0-0-0---|-----------------|-0---0---0-0-0---|-----------------|
   1   2   3   4     1   2   3   4     1   2   3   4     1   2   3   4
   Em            D                     Em            D


[VERSE 2]
Em7        G                   Cadd9
   Felt so cold, you put me on fire
Em7          G             Cadd9
   Hope that you'll forgive     for burning out
Em7        G                    Cadd9
   You are more than you are surrendering
Em7         G                  Cadd9
   Keep the speed I need you up there
               Am7 Am7/G           D/F#
   And this is on       the ocean
               Am7 Am7/G           D/F#
   And I'll be yours,   and I swear


[CHORUS 2]
                 Cadd9 G        Dsus4 D
You gave a Judas Kiss, yeah yeah
                 Cadd9 G        Dsus4 D
You gave a Judas Kiss, yeah yeah
                 Cadd9 G        Dsus4 D
And I just felt that bliss, yeah yeah
                 Cadd9 G
but it was Judas' Kiss, yeah yeah


[OUTRO]
   D   D   D U D U     U D U D U D DU  D   D   D U D U     U D U D U D U
e|-----0-----0-----|-----------------|-----0-----0-----|-----------------|
B|-----0-----0---3-|---3-3-3-3-3-----|-----0-----0---3-|---3-3-3-3-3-----|
G|-----0-----0---0-|---0-0-0-0-0-----|-----0-----0---0-|---0-0-0-0-0-----|
D|-----2-----0---4-|---4-4-4-4-4-----|-----2-----0---4-|---4-4-4-4-4-0-0-|
A|-----2-----2---5-|---5-5-5-5-5-0-22|-----2-----2-----|---5-5-5-5-5-0-0-|
E|-0---0---0-0-0---|-----------------|-0---0---0-0-0---|-----------------|
   1   2   3   4     1   2   3   4     1   2   3   4     1   2   3   4
   Em7           D                     Em            D
                      And give me your heart,                 give me your 


   D   D   D U D U     U D U D U D U      D   D U   U D       U   U   U D DU
e|-----0-----0-----|-----------------||---3-----3---3-3---|---3---3-3-3-3------||
B|-----0-----0---3-|---3-3-3-3-3-----||---3-----3---3-3---|---3---3-3-3-3------||
G|-----0-----0---0-|---0-0-0-0-0-----||-o-0---0-------0---|---0---0-0-0-0-00-o-||
D|-----2-----0---4-|---4-4-4-4-4-0-0-||-o-0---0-------0---|---0---0-0-0-0-00-o-||
A|-----2-----2---5-|---5-5-5-5-5-0-0-||---3---3-------3---|---3---3-3-3-3-33---||
E|-0---0---0-0-0---|-----------------||-------------------|--------------------||
   1   2   3   4     1   2   3   4        1   2   3   4     1   2   3   4
   Em            D                        Csus2
   heart,             and give me your|:  heart               and give me your:|x3; 3rd time through, play
                                                                                just first repeated measure

             Csus2
You gave a Judas Kiss
Dsus4           Em
yeah yeah 


Harmonics:
e|------------------------------------|
B|--------------------------------|
G|--------------------------------|
D|--------------------------------|
A|---------------------------------|
E|-0-------------------------------|
Добавлено: 21.10.2015
Другие материалы по этой песне:
  • Аккорды и текст

Страница создана 10.04.2012
http://primanota.ru/lisa-miskovsky/judas-kiss-chords.htm
Привет, Гость.
Предлагаем пройти революционный курс по гитаре.
Подарок от PrimaNota.Ru, забирай!