PrimaNota.ru - самый крупный в мире бесплатный архив песенных текстов, аккордов, табулатур и нот


In Flames - Dead End - текст песни, таба, видео

Регистрация Запомнить меня
Войти через:  Facebook Google Twitter Vk Yandex Mail.ru

In Flames - Dead End - текст песни, таба, видео

Печатать
Просмотров: 210
Dead End Intro
In Flames
Come Clarity

This is what I have so far.

Gtr I (A# F A# D# G C) - 'Rhythm Guitar I'
Gtr II (A# F A# D# G C) - 'Rhythm Guitar II'
Gtr III (A# F A# D# G C) - 'Lead Guitar I'
Gtr IV (A# F A# D# G C) - 'Lead Guitar II'


   Intro
    Q=184
   4/4
    Gtr I
    PM  PM  PM   PM------------|
    E E E E E Q  E   S S E E S S Q  Q
||-----------------|-------------------|
||o----------------|-------------------|
||-----------------|-------------------|
||----7---5---3----|-------------8--8--|
||o-0-7-0-5-0-3--0-|-0-0-0-0-0-0-5--5--|
||--0-7-0-5-5-3--0-|-0-0-0-0-0-0-5--5--|
|
|   Gtr II
|   PM  PM  PM   PM------------|
|   E E E E E Q  E   S S E E S S Q  Q
||-----------------|-------------------|
||o----------------|-------------------|
||-----------------|-------------------|
||----7---5---3----|-------------5--5--|
||o-7-7-0-5-0-3--5-|-5-5-5-5-5-5-5--5--|
||--7-7-0-5-0-3--0-|-0-0-0-0-0-0-5--5--|


  PM  PM  PM   PM              PM
  E E E E E Q  E    E  E  E  S S E E E E
|----------------|-------------------------||
|----------------|------------------------o||
|----------------|-------------------------||
|---7---5---3----|--8--8--8--8---8-8-8-8---||
|-0-7-0-5-0-3----|--8--8--8--8---5-5-5-5--o||
|-0-7-0-5-5-3--0-|--8--8--8--8-0-5-5-5-5---||
|
| PM  PM  PM   PM
| E E E E E Q  E    E  E  E  E   E E E E
|----------------|-------------------------||
|----------------|------------------------o||
|----------------|-------------------------||
|---7---5---3----|-12-12-12-12---5-5-5-5---||
|-0-7-0-5-0-3----|--8--8--8--8---5-5-5-5--o||
|-0-7-0-5-0-3--0-|--8--8--8--8---5-5-5-5---||


                          PM  PM   PM------------|
  E E E Q  E  E E     E E E E E Q  E   S S E E S S Q  Q
|-----------------||-----------------|-------------------|
|-----------------||o----------------|-------------------|
|-----------------||-----------------|-------------------|
|-----------------||--7-7---5---3----|-------------8--8--|
|-3-5p0h1--0h=3p1-||o-8-8-0-5-0-3--0-|-0-0-0-0-0-0-5--5--|
|-3-5-------------||--7-7-0-5-5-3--0-|-0-0-0-0-0-0-5--5--|
|
|                         PM  PM   PM------------|
| E E E Q  E  E E     E E E E E Q  E   S S E E S S Q  Q
|-----------------||-----------------|-------------------|
|-----------------||o----------------|-------------------|
|-----------------||-----------------|-------------------|
|-----------------||--7-7---5---3----|-------------5--5--|
|-3-5h7h8--7h10p8-||o-7-7-0-5-0-3--5-|-5-5-5-5-5-5-5--5--|
|-3-5-------------||--7-7-0-5-0-3--0-|-0-0-0-0-0-0-5--5--|


      PM  PM   PM              PM
  E E E E E Q  E    E  E  E  S S E E E E
|----------------|------------------------||
|----------------|-----------------------o||
|----------------|------------------------||
|-7-7---5---3----|--8--8--8--8---8-8-8-8--||
|-8-8-0-5-0-3----|--8--8--8--8---5-5-5-5-o||
|-7-7-0-5-5-3--0-|--8--8--8--8-0-5-5-5-5--||
|
|     PM  PM   PM
| E E E E E Q  E    E  E  E  E   E E E E
|----------------|------------------------||
|----------------|-----------------------o||
|----------------|------------------------||
|-7-7---5---3----|-12-12-12-12---5-5-5-5--||
|-7-7-0-5-0-3----|--8--8--8--8---5-5-5-5-o||
|-7-7-0-5-0-3--0-|--8--8--8--8---5-5-5-5--||


 Verse I
  Gtr III
          ~~       ~        ~~~~~~           ~~
  Q  E E  Q  E E   Q  E   E Q   Q    Q  E E  Q  E E    E   E E E E E E E
|----------------|-----------------|----------------|--------------------|
|----------------|-----------------|----------------|--------8-8---------|
|------7-10----7-|-9--------7------|------7-10----7-|-10--10-----9-9-7-7-|
|-7--7-------7---|----7--10----10--|-7--7-------7---|--------------------|
|----------------|-----------------|----------------|--------------------|
|----------------|-----------------|----------------|--------------------|
|
| Gtr IV
|         ~~       ~        ~~~~~~           ~~
| Q  E E  Q  E E   Q  E   E Q   Q    Q  E E  Q  E E    E   E E E E E E E
|----------------|-----------------|----------------|--------------------|
|----------------|-----------------|----------------|--------9-9---------|
|------7-10----7-|-9--------7------|------7-10----7-|-10--10-----9-9-7-7-|
|-7--7-------7---|----7--10----10--|-7--7-------7---|--------------------|
|----------------|-----------------|----------------|--------------------|
|----------------|-----------------|----------------|--------------------|
|
| Gtrs I, II
|                  PM
| W                q  H.             W                +W
|----------------|-----------------|----------------|--------------------|
|----------------|-----------------|----------------|--------------------|
|----------------|-----------------|----------------|--------------------|
|----------------|-----------------|----------------|--------------------|
|----------------|-----------------|----------------|--------------------|
|-0--------------|-0---------------|-0--------------|-(0)----------------|




--------------------------------------------------------------------------------


Duration Legend
---------------
W - whole; H - half; Q - quarter; E - 8th; S - 16th; T - 32nd; X - 64th; a - acciaccatura
+ - note tied to previous;
Добавлено: 06.07.2012
Другие материалы по этой песне:

Страница создана 01.05.2012
http://primanota.ru/in-flames/dead-end-chords.htm
Привет, Гость.
Предлагаем пройти революционный курс по гитаре.
Подарок от PrimaNota.Ru, забирай!