PrimaNota.ru - самый крупный в мире бесплатный архив песенных текстов, аккордов, табулатур и нот


Limp Bizkit - Just one of those days - таба, видео

Регистрация Запомнить меня
Войти через:  Facebook Google Twitter Vk Yandex Mail.ru

Limp Bizkit - Just one of those days - таба, видео

Печатать
Просмотров: 175


(Intro)
(verse)
played twice then singing comes in:
but you keep playing this throught whole verse:
|-----------------------------------|
|-----------------------------------|
|-----------------------------------|
|-3h2--3h2--------------------------|
|-3h2--3h2--------------------------|
|-1h0--1h0--------------------------|

(course)
|------------------------------------|
|------------------------------------|
|------------------------------------|
|-3-3--155---------------------------|
|-3-3--155---------------------------|
|-3-3--155---------------------------|


thats about it for rythem guitar
i don't know the lead guitar riffs:

Добавлено: 15.01.2014
Другие материалы по этой песне:
  • Аккорды и текст

Страница создана 15.01.2014
http://primanota.ru/limp-bizkit/just-one-of-those-days-chords.htm
Привет, Гость.
Предлагаем пройти революционный курс по гитаре.
Подарок от PrimaNota.Ru, забирай!