PrimaNota.ru - самый крупный в мире бесплатный архив песенных текстов, аккордов, табулатур и нот


Limp Bizkit - Desperate For Cash - таба, видео

Регистрация Запомнить меня
Войти через:  Facebook Google Twitter Vk Yandex Mail.ru

Limp Bizkit - Desperate For Cash - таба, видео

Печатать
Просмотров: 66
Band: Limp Bizkit 
Song: Desperate For Cash

Tune to D 

--------------| 
--------------| 
--------------| 
--------------| 
-0-3-0-0-3-0--|    Repeat 4 times 
-0-3-0-0-3-0--| 

---------------------------------------------------| 
---------------------------------------------------| 
---------------------------------------------------| 
-0-2p0-2p0-------0-2p0-2p0----0-2p0-2p0------------| 
------------0-0------------3-------------5-3-0-0---|   Repeat 8 times 
------------0-0------------3-------------5-3-0-0---| 

------------------------------------------| 
------------------------------------------| 
------------------------------------------| 
------------------------------------------| 
-5-3-5-6-5-3p0-3p0-0-0-x-x-0-0-x-x-0------|    Repeat 2 times 
-5-3-5-6-5-3p0-3p0-0-0-x-x-0-0-x-x-0------| 

----------------------------------------------------| 
----------------------------------------------------| 
----------------------------------------------------| 
------------------------------------------------0---| 
-6-6-6-6-6-6-6-6-6-6-6-6-6-6-6-6-6-6---0-x-x-0--0---| 
-6-6-6-6-6-6-6-6-6-6-6-6-6-6-6-6-6-6---0-x-x-0--0---| 
Добавлено: 31.10.2015
Другие материалы по этой песне:
  • Аккорды и текст

Страница создана 31.10.2015
http://primanota.ru/limp-bizkit/desperate-for-cash-chords.htm
Привет, Гость.
Предлагаем пройти революционный курс по гитаре.
Подарок от PrimaNota.Ru, забирай!