PrimaNota.ru - самый крупный в мире бесплатный архив песенных текстов, аккордов, табулатур и нот


Limp Bizkit - Forever - текст песни, таба, видео

Регистрация Запомнить меня
Войти через:  Facebook Google Twitter Vk Yandex Mail.ru

Limp Bizkit - Forever - текст песни, таба, видео

Печатать
Просмотров: 100
Band: Limp Bizkit
Song: Forever
Tuning: C#, F#, B, E, g#, c#,

Intro: use your wah wah here
---------------------------------------------------------------|
---------------------------------------------------------------|
--9-x-x-9-x-x-9-x-x-9-10--9---9-x-x-9-x-x-13/14-13-10/1110-----|
--x-x-x-x-x-x-x-x-x-x--x--x---x-x-x-x-x-x--x--x---x--x--x--x---|
--7-x-x-7-x-x-7-x-x-7/-8-7---7-x-x-7-x-x-11/12-11--8/-9-8------|
---------------------------------------------------------------|

---------------------------------------------------------------|
---------------------------------------12----12---12----12-----|
--9-x-x-9-x-x-9-x-x-9/109-9-x-x-9-x-x----10----10----10----10--|
--x-x-x-x-x-x-x-x-x-x--x-x-x-x-x-x-x-x-------------------------|
--7-x-x-7-x-x-7-x-x-7/-87-7-x-x-7-x-x--------------------------|
---------------------------------------------------------------|

Verse:
---------------------------------------------------|
---------------------------------------------------|
--6-6-6-6-6-6-6-0-6-6-----6-6-6-6-6-6-6-6-0-6-6^---|
---------------------------------------------------|
---------------------------------------------------|
---------------------------------------------------|

Pre Chorus:
--------|
--------|
--------|
--5-4-3-|
--5-4-3-|
--3-2-1-|
  * * *

Chorus:
------------------------------|
------------------------------|
------------------------------|
--544-4-54--4-544-4--54-43----|
--544-4-54--4-544-4--54-43----|
--322-2-32--2-322-2--32-21----|

Fill in Intro Verse and Chorus.

Bridge: play twice
-----------------|
-----------------|
-----------------|
--x4-x5-x7-x9----|
--x4-x5-x7-x9----|
--x2-x3-x5-x7----|
Добавлено: 31.10.2015
Другие материалы по этой песне:
  • Аккорды и текст

Страница создана 27.09.2014
http://primanota.ru/limp-bizkit/forever-chords.htm
Привет, Гость.
Предлагаем пройти революционный курс по гитаре.
Подарок от PrimaNota.Ru, забирай!