PrimaNota.ru - самый крупный в мире бесплатный архив песенных текстов, аккордов, табулатур и нот


Limp Bizkit - Get On The Bus - таба, видео

Регистрация Запомнить меня
Войти через:  Facebook Google Twitter Vk Yandex Mail.ru

Limp Bizkit - Get On The Bus - таба, видео

Печатать
Просмотров: 61
Artist: Limp Bizkit
Piece: Get On The Bus
Instrument: Guitar

-limp bizkit
-get on the bus/get o da bus
-regular tuning

e---------------------------------------------------------------|
b---------------------------------------------------------------|
g-------10------------------7----7/9h-10------------------------|
d----10----------10-------7--------------------repeat-----------|
a--8----------10--------5---------------------------------------|
e-----------8---------------------------------------------------|

sometimes do this :

e---------------------------------------------------------------|
b---------------------------------------------------------------|
g-------10------------------7-----------------------------------|
d----10----------10-------7--------8----------------------------|
a--8----------10--------5--------8------------------------------|
e-----------8------------------6--------------------------------|

it sounds pretty cool if one guitar strums the chords and one plays the riff

e--------------------------------------------------------|
b--------------------------------------------------------|
g---10---------------7-----------------------------------|
d---10-----10--------7------8----------------------------|
a----8-----10--------5------8----------------------------|
e-----------8---------------6----------------------------|
Добавлено: 31.10.2015
Другие материалы по этой песне:
  • Аккорды и текст

Страница создана 31.10.2015
http://primanota.ru/limp-bizkit/get-on-bus-chords.htm
Привет, Гость.
Предлагаем пройти революционный курс по гитаре.
Подарок от PrimaNota.Ru, забирай!