PrimaNota.ru - самый крупный в мире бесплатный архив песенных текстов, аккордов, табулатур и нот


Limp Bizkit - Stick Em - таба, видео

Регистрация Запомнить меня
Войти через:  Facebook Google Twitter Vk Yandex Mail.ru

Limp Bizkit - Stick Em - таба, видео

Печатать
Просмотров: 109
Limp Bizkit - Stick 'Em
Tuning is - C# G# C# F# A# D#


Intro goes into verse

* - Palm Muted
---------------------------------------------|
---------------------------------------------|
---------------*Don't play on 12th time*   1-|2x
-1/5------------------(1/5)------------------|
-1/5--0-0-0-0-0-0-0-0-(1/5)------------------|
------0-0-0-0-0-0-0-0------------------------|
      * * * * * * * *

Chorus

"Stick Em Stick Em.."
------------------------------------------------------|
------------------------------------------------------|
-------------------------*Second Time Play twice------|    2x
---------------------------9h10-9h11-9h10-10h9--------|
-0202--0202--0202--0202----9h10-9h11-9h10-10h9--------|
-0202--0202--0202--0202-------------------------------|

Verse

* - Palm Muted
-----------------------------|
-----------------------------|
-----------------------------|Not played on the 8th time*
-1/5-------------- (1/5------|   8x
-1/5-0-0-0-0-0-0-0-(1/5)-----|
-----0-0-0-0-0-0-0-----------|
     * * * * * * *

Chorus

"Stick Em Stick Em"
--------------------------------------------------|
--------------------------------------------------|
------------------------*Second Time Play Twice*--|    2x
--------------------------9h10-9h11-9h10-10h9-----|
-0202--0202--0202--0202---9h10-9h11-9h10-10h9-----|
-0202--0202--0202--0202---------------------------|

Next

Picking - U is up, D id down
-------------------------------------|
-------------------------------------|
-------------------------------------|    20x
-------------------------------------|
-*-*-5-5-*-*-5-5--5h6-5h8-5h6-5-5----|
-*-*-5-5-*-*-5-5--5h6-5h8-5h6-5-5----|
 D U     D U

After the last 20x this is added
---------------------------|
---------------------------|
---------------------------|   3x
-----5-----6-----8-----5---|
-*-*-5-*-*-6-*-*-8-*-*-5---|
-*-*---*-*---*-*---*-*-----|

Chorus

--------------------------------------------------|
--------------------------------------------------|
-----------------------*econd time play twice-----|   2x
-------------------------9h10-9h11-9h10 10h9------|
-0202--0202--0202--0202--9h10-9h11-9h10-10h9------|
-0202--0202--0202--0202---------------------------|

Thats it enjoy all.
Добавлено: 28.11.2015
Другие материалы по этой песне:
  • Аккорды и текст

Страница создана 28.11.2015
http://primanota.ru/limp-bizkit/stick-em-chords.htm
Привет, Гость.
Предлагаем пройти революционный курс по гитаре.
Подарок от PrimaNota.Ru, забирай!