PrimaNota.ru - самый крупный в мире бесплатный архив песенных текстов, аккордов, табулатур и нот


Lianne La Havas - Tokyo - аккорды и текст, видео

Регистрация Запомнить меня
Войти через:  Facebook Google Twitter Vk Yandex Mail.ru

Lianne La Havas - Tokyo - аккорды и текст, видео

Печатать
Просмотров: 94
Tokyo
Lianne La Havas
-------------------------------------------------------------------------------
                          TOKYO - Lianne La Havas
-------------------------------------------------------------------------------
Tabbed by:ndermawan

Tuning: Standard


Lovely song by Lianne La Havas. So much groove and soul in this!


Disclaimer:
-----------
Intro uses either 2 guitars or some type of delay effect. 
Not sure if mine is 100% correct, but sounds good enough to me.

The song is very bass-heavy, so don't be surprised if it doesnt sound 100% when played
with guitar only.

Chords listed above lyrics, for details on bass parts etc look at bottom of page


Please rate if it helped! Always open to corrections/suggestions.

===============================================================================



Intro: use which ever picking variation sounds best to you
------
e|-----------------------------------------------------------------------------------------------|
B|----10---10---10---10---10---------------------------------------------------------------------|
G|---7----7----7----7----7------9---9---9---9---9----7---7---7---7---7-----7---7-------9---9-----|
D|--9----9----9----9----9------7---7---7---7---7----5---5---5---5---5-----5---5---5-/-7---7---7--|
A|----------------------------9---9---9---9---9----7---7---7---7---7---7-7---7---7-/-9---9---9---|
E|-----------------------------------------------------------------------------------------------|

OR

e|-----------------------------------------------------------------------------------------------|
B|---10---10---10---10---10----------------------------------------------------------------------|
G|-----7----7----7----7----7-----9---9---9---9---9------7---7---7---7---7----7---7---7---9---9---|
D|--9----9----9----9----9---9-----7---7---7---7---7------5---5---5---5---5----5---5---/---7---7--|
A|-----------------------------9---9---9---9---9---9---7--7---7---7---7---7-7--7---7-/-9---9---9-|
E|-----------------------------------------------------------------------------------------------|


Verse 1: Intro picking + chords                                                                 00.31 - 00.52
--------

Bm
I am neon
F#m
Cold neon
Em               Em    F#m
Not a mystery

Bm
All I've every known is
F#m
How to be alone
Em               Em   F#m
It comes naturally



Prechorus: Prechorus Picking + Bass notes - chords listed below are bass notes,                 00.53 - 1.14
----------                                  literally just strumming Em here until the F# works fine
Em    Bm       D       Em
   Oh baby, can I hold you?
(Bm)   D     D    Bm
Such a cold, cold night

Em    Bm           D          Em
    I thought I wouldn't need to
(Bm)        D   D  Bm
I've got my neon lights

Em  Bm              D      Em
I'm longing just to feel you
(Bm)         D    D     Bm
To know that it's alright

Em    Bm    D        F#\
   Oh baby baby baby baby



Chorus: Groovy slap bass + strum chords(?) + maybe intro picking if you feel like it            1.15 - 1.41
-------
Bm          F#m
I'm out of sight
            Em     
I'm out of mind
Em       F#m
Alone in Tokyo

Bm             F#m
You're out of reach
                   Em
Wrong place, wrong time
Em        F#m      Bm 
Добавлено: 17.04.2016
Другие материалы по этой песне:
  • Аккорды и текст

Страница создана 17.04.2016
http://primanota.ru/lianne-la-havas/tokyo-chords.htm
Привет, Гость.
Предлагаем пройти революционный курс по гитаре.
Подарок от PrimaNota.Ru, забирай!