PrimaNota.ru - самый крупный в мире бесплатный архив песенных текстов, аккордов, табулатур и нот


Lianne La Havas - Ghost - таба, видео

Регистрация Запомнить меня
Войти через:  Facebook Google Twitter Vk Yandex Mail.ru

Lianne La Havas - Ghost - таба, видео

Печатать
Просмотров: 86
Уроки эстрадного вокала в Санкт-Петербурге
-------------------------------------------------------------------------------
                             GHOST - Lianne La Havas
-------------------------------------------------------------------------------
Tabbed by: Andrew Lyle Emerson
E-mail: alemerson@gmail.com

Tuning: Standard

Into/Outro

e|------------------------------------------------|
B|------------------------------------------------|
G|--5----h7--p5--h7--p5------5---h7--p5----5------|
D|--5------------------------5-------------4------|   X2
A|--6--6------------------6------------6---5------|
E|------------------------------------------------|

Verse

e|--------------5---1--------------------------------------------------------|
B|-(6)----------3---1---13---------------10---8------------------------------|
G|--5---5---5---3---1---13---5---5---5---10---7------------------------------|
D|--5---5---4---3---1---12---5---5---4---8----7------------------------------|
A|--6---5---5---5---3---13---6---5---5---10---8------------------------------|
E|--------------3---1--------------------------------------------------------|

e|--------------5---1--------------------------------------------------------|
B|--------------3---1---13---------------10---3------------------------------|
G|--5---5---5---3---1---13---5---5---5---10---3------------------------------|
D|--5---5---4---3---1---12---5---5---4---8----2------------------------------|
A|--6---5---5---5---3---13---6---5---5---10----------------------------------|
E|--------------3---1-------------------------3------------------------------|

Chorus

e|---------------------------------------------------------------------------|
B|---------------------------------------------------------------------------|
G|--3---3---3---5---------------5--------------------------------------------|
D|--1---1---1---5---5---0---5---5--------------------------------------------|
A|--3-------3---6---5---0---5------------------------------------------------|
E|------3-----------6--\1--/6---5--------------------------------------------|



************************************

| /   slide up
| \   slide down
| h   hammer-on
| p   pull-off
| ~   vibrato
| +   harmonic
| x   Mute note
| b   Bend
| pb  Pre-bend
| br  Bend release
| pbr Pre-bend release
| brb Bend release bend

************************************
Добавлено: 17.04.2016
Другие материалы по этой песне:
  • Аккорды и текст

Страница создана 17.04.2016
http://primanota.ru/lianne-la-havas/ghost-chords.htm
Привет, Гость.
Предлагаем пройти революционный курс по гитаре.
Подарок от PrimaNota.Ru, забирай!