PrimaNota.ru - самый крупный в мире бесплатный архив песенных текстов, аккордов, табулатур и нот


Lianne La Havas - Midnight - таба, видео

Регистрация Запомнить меня
Войти через:  Facebook Google Twitter Vk Yandex Mail.ru

Lianne La Havas - Midnight - таба, видео

Печатать
Просмотров: 153
Уроки эстрадного вокала в Санкт-Петербурге
Main riff through the whole song

E|------------------------------------------------------------------------------------------
B|----------------------------------12----------------------12--------------------------12--
G|-----------8--9---11----------------------------------------------------------------------
D|--------8-----9---11----------11------11--------------11------11------------------11------
A|-----9--------10--12------12--------------12------12--------------12----------12----------
E|--7-----------8---10--10----------------------10--------------------------10--------------

E|----------------------------------------------------------------------
B|--------------------------7*--------------7*----------------7*--------
G|-----5-----4-----------7-------7--------7-------7---------7--------7--
D|-----5-----4--------5-----------------5-----------------5-------------
A|-----6-----5-----7----------7-------7---------7------7-----------7----
E|--4-----3-----0-------------------0----------------0------------------
Добавлено: 17.04.2016
Другие материалы по этой песне:

Страница создана 17.04.2016
http://primanota.ru/lianne-la-havas/midnight-chords.htm
Привет, Гость.
Предлагаем пройти революционный курс по гитаре.
Подарок от PrimaNota.Ru, забирай!