PrimaNota.ru - самый крупный в мире бесплатный архив песенных текстов, аккордов, табулатур и нот


Level 42 - The Sun Goes Down Living It Up - бас-таба, видео

Регистрация Запомнить меня
Войти через:  Facebook Google Twitter Vk Yandex Mail.ru

Level 42 - The Sun Goes Down Living It Up - бас-таба, видео

Печатать
Просмотров: 104
Авторы: Mark King, Wally Badarou, Philip Gould, Mike Lindup

Title: The Sun Goes Down (Living It Up)
Artist: Level 42
Album: Standing In The Light
Tempo = 102
Bass

Legend
x - dead note
h - hammer on
p - pull off
b - bend
s - slide
P - popping (bass)

                         P                                              
G |-------|----------------------------------------------------|-------|
D |-------|--------------0--------2-----------4--------2--2----|-------|
A |-------|-----------------2h-4--------2h-4--------4----------|-------|
E |-------|----------------------------------------------------|-------|

                                                          
----------------------------------------------------|----|
-----------------------2-----------4--------2--2----|----|
-----------------2h-4--------2h-4--------4----------|----|
----------------------------------------------------|----|

                                                     
----------------------------------------------------|
-----------------------2-----------4--------2--2----|
-----------------2h-4--------2h-4--------4----------|
----------------------------------------------------|

                                                     
--------------------------------------4--2----------|
--------------------------------------------x-------|
-----------------------------------------------2--0-|
----------------------------------------------------|

                                                     
----------------------------------------------------|
-----------------------2-----------4--------2--2----|
-----------------2h-4--------2h-4--------4----------|
----------------------------------------------------|

                                                     
----------------------------------------------------|
----------------------------------------------------|
--------------------0-----2--------4-----0----------|
--2--2--2-----2-----------------------------2-------|

                                                     
----------------------------------------------------|
----------------------------------------------------|
----------------------------------------------------|
-----------------2--0-----0--------0--------0-------|

                                                     
----------------------------------------------------|
--------------------------------------------2-------|
--------------------0-----2--------4----------------|
--2--2--2-----2-------------------------------------|

                                                     
----------------------------------------------------|
--4-----------2-----4-----2-----------2--3--4-------|
----------------------------------------------------|
-----------------------------------------------0----|

                                                     
----------------------------------------------------|
----------------------------------------------------|
--------------------0-----2--------4-----0----------|
--2--2--2-----2-----------------------------2-------|

                                                     
----------------------------------------------------|
----------------------------------------------------|
----------------------------------------------------|
-----------------2--0-----0--------0--------0-------|

                                                     
----------------------------------------------------|
--------------------------------------------2-------|
--------------------0-----2--------4----------------|
--2--2--2-----2-------------------------------------|

                                                     
----------------------------------------------------|
--4-----------2-----4-----2-----------2--3--4-------|
----------------------------------------------------|
-----------------------------------------------0----|

                                                     
----------------------------------------------------|
----------------------------------------------------|
--------------------0-----2--------4-----0----------|
--2--2--2-----2-----------------------------2-------|

                                                     
----------------------------------------------------|
----------------------------------------------------|
----------------------------------------------------|
-----------------2--0-----0--------0--------0-------|

                                                     
----------------------------------------------------|
--------------------------------------------2-------|
--------------------0-----2--------4----------------|
--2--2--2-----2-------------------------------------|

                                                     
----------------------------------------------------|
--4-----------2-----4-----2-----------2--3--4-------|
----------------------------------------------------|
-----------------------------------------------0----|

                                                     
----------------------------------------------------|
----------------------------------------------------|
--------------------0-----2--------4-----0----------|
--2--2--2-----2-----------------------------2-------|

                                                     
----------------------------------------------------|
----------------------------------------------------|
----------------------------------------------------|
-----------------2--0-----0--------0--------0-------|

                                                     
----------------------------------------------------|
--------------------------------------------2-------|
--------------------0-----2--------4----------------|
--2--2--2-----2-------------------------------------|

                                                     
----------------------------------------------------|
--4-----------2-----4-----2-----------2--3--4-------|
----------------------------------------------------|
----------------------------------------------------|

                                                     
----------------------------------------------------|
-----------7----------------------------------------|
-----------------2h-3h-5--5--0--------5-------------|
--5-----------------------------2--------------5----|

                                                     
----------------------------------------------------|
----------------------------------------------------|
--6--7--7-------------------------------------------|
-----------------0--------0--------0----------------|

                                                     
----------------------------------------------------|
-----------7----------------------------------------|
-----------------2h-3h-5--5--0--------5-------------|
--5-----------------------------2--------------5----|

                                                     
----------------------------------------------------|
----------------------------------------------------|
--6--7--7-------------------------------------------|
-----------------0--------0--------0----------------|

                                                     
----------------------------------------------------|
-----------7----------------------------------------|
-----------------2h-3h-5--5--0--------5-------------|
--5-----------------------------2--------------5----|

                                                     
----------------------------------------------------|
----------------------------------------------------|
--6--7--7-------------------------------------------|
-----------------0--------0--------0----------------|

                                                     
----------------------------------------------------|
-----------7----------------------------------------|
-----------------2h-3h-5--5--0--------5-------------|
--5-----------------------------2--------------5----|

                                                     
----------------------------------------------------|
----------------------------------------------------|
--6--7--7--------------------------7s---------------|
-----------------0--------0--------------------0----|

                                                     
----------------------------------------------------|
----------------------------------------------------|
--------------------0-----2--------4-----0----------|
--2--2--2-----2-----------------------------2-------|

                                                     
----------------------------------------------------|
----------------------------------------------------|
----------------------------------------------------|
-----------------2--0-----0--------0--------0-------|

                                                     
----------------------------------------------------|
--------------------------------------------2-------|
--------------------0-----2--------4----------------|
--2--2--2-----2-------------------------------------|

                                                     
----------------------------------------------------|
--4-----------2-----4-----2-----------2--3--4-------|
----------------------------------------------------|
-----------------------------------------------0----|

                                                     
----------------------------------------------------|
----------------------------------------------------|
--------------------0-----2--------4-----0----------|
--2--2--2-----2-----------------------------2-------|

                                                     
----------------------------------------------------|
----------------------------------------------------|
----------------------------------------------------|
-----------------2--0-----0--------0--------0-------|

                                                     
----------------------------------------------------|
--------------------------------------------2-------|
--------------------0-----2--------4----------------|
--2--2--2-----2-------------------------------------|

              P                       P        
--------------4h-5p-4s-2--------------4h-5p-4s-2----|
--4-------------------------------------------------|
----------------------------------------------------|
----------------------------------------------------|

                                                                          
----------------------------------------------------|
----------------------------------------------------|
--------------------0-----2--------4-----0----------|
--2--2--2-----2-----------------------------2-------|

                                                     
----------------------------------------------------|
----------------------------------------------------|
----------------------------------------------------|
-----------------2--0-----0--------0--------0-------|

                                                     
----------------------------------------------------|
--------------------------------------------2-------|
--------------------0-----2--------4----------------|
--2--2--2-----2-------------------------------------|

                                                     
----------------------------------------------------|
--4-----------2-----4-----2-----------2--3--4-------|
----------------------------------------------------|
-----------------------------------------------0----|

                                                     
----------------------------------------------------|
----------------------------------------------------|
--------------------0-----2--------4-----0----------|
--2--2--2-----2-----------------------------2-------|

                                                     
----------------------------------------------------|
----------------------------------------------------|
----------------------------------------------------|
-----------------2--0-----0--------0--------0-------|

                                                     
----------------------------------------------------|
--------------------------------------------2-------|
--------------------0-----2--------4----------------|
--2--2--2-----2-------------------------------------|

                                                     
----------------------------------------------------|
--4-----------2-----4-----2-----------2--3--4-------|
----------------------------------------------------|
----------------------------------------------------|

                                                     
----------------------------------------------------|
-----------7----------------------------------------|
-----------------2h-3h-5--5--0--------5-------------|
--5-----------------------------2--------------5----|

                                                     
----------------------------------------------------|
----------------------------------------------------|
--6--7--7-------------------------------------------|
-----------------0--------0--------0----------------|

                                                     
----------------------------------------------------|
-----------7----------------------------------------|
-----------------2h-3h-5--5--0--------5-------------|
--5-----------------------------2--------------5----|

                                                     
----------------------------------------------------|
----------------------------------------------------|
--6--7--7-------------------------------------------|
-----------------0--------0--------0----------------|

                                                     
----------------------------------------------------|
-----------7----------------------------------------|
-----------------2h-3h-5--5--0--------5-------------|
--5-----------------------------2--------------5----|

                                                     
----------------------------------------------------|
----------------------------------------------------|
--6--7--7-------------------------------------------|
-----------------0--------0--------0----------------|

                                                     
----------------------------------------------------|
-----------7----------------------------------------|
-----------------2h-3h-5--5--0--------5-------------|
--5-----------------------------2--------------5----|

                                                     
----------------------------------------------------|
----------------------------------------------------|
--6--7--7-------------------------------------------|
-----------------0--------0--------0--0-------------|

  P                          
----------------------------|
--4-------------------------|
----------------------------|
----------------------------|

                                                     
----------------------------------------------------|
-----------------------2-----------4--------2--2----|
-----------------2h-4--------2h-4--------4----------|
----------------------------------------------------|

                                                                                
--------------------------4p-2----------------------|
--------------------------------4p-2--x-------------|
-----------------------------------------2b--0------|
----------------------------------------------------|

                                                                          
----------------------------------------------------|
-----------------------2-----------4--------2--2----|
-----------------2h-4--------2h-4--------4----------|
----------------------------------------------------|

                                                     
----------------------------------------------------|
----------------------------------------------------|
--------------------0-----2--------4-----0----------|
--2--2--2-----2-----------------------------2--2----|

                                                     
----------------------------------------------------|
----------------------------------------------------|
----------------------------------------------------|
-----------------2--0-----0--------0--------0-------|

                                                     
----------------------------------------------------|
--------------------------------------------2-------|
--------------------0-----2--------4----------------|
--2--2--2-----2-------------------------------------|

                                                     
----------------------------------------------------|
--4-----------2-----4-----2-----------2--3--4-------|
----------------------------------------------------|
-----------------------------------------------0----|

                                                     
----------------------------------------------------|
--------------------------------------------4-------|
--------------------0-----2--------4-----x----------|
--2--2--2-----2-------------------------------------|

                                                     
----------------------------------------------------|
----------------------------------------------------|
----------------------------------------------------|
-----------------2--0-----0--------0--------0-------|

                                                     
----------------------------------------------------|
--------------------------------------------2-------|
--------------------0-----2--------4----------------|
--2--2--2-----2-------------------------------------|

                                                     
----------------------------------------------------|
--4-----------2-----4-----2-----------2--3--4-------|
----------------------------------------------------|
-----------------------------------------------0----|

                                                     
----------------------------------------------------|
--------------------------------------------4-------|
--------------------0-----2--------4-----x----------|
--2--2--2-----2-------------------------------------|

                                                     
----------------------------------------------------|
----------------------------------------------------|
--------------------------------------------0-------|
-----------------2--0-----0--------0----------------|

                                                     
----------------------------------------------------|
--------------------------------------------2-------|
--------------------0-----2--------4----------------|
--2--2--2-----2-------------------------------------|

               P                       P        
---------------4h-5p-4s-2-------------4h-5p-4s-2----|
--4-------------------------------------------------|
----------------------------------------------------|
----------------------------------------------------|

                                                                          
----------------------------------------------------|
----------------------------------------------------|
--------------------0-----2--------4-----0----------|
--2--2--2-----2-----------------------------2-------|

                                                     
----------------------------------------------------|
----------------------------------------------------|
----------------------------------------------------|
-----------------2--0-----0--------0--------0-------|

                                                     
----------------------------------------------------|
--------------------------------------------2-------|
--------------------0-----2--------4----------------|
--2--2--2-----2-------------------------------------|

                                                     
----------------------------------------------------|
--4-----------2-----4-----2-----------2--3--4-------|
----------------------------------------------------|
-----------------------------------------------0----|

                                                     
----------------------------------------------------|
-----------7----------------------------------------|
-----------------2h-3h-5--5--0--------5-------------|
--5-----------------------------2--------------5----|

                                                     
----------------------------------------------------|
----------------------------------------------------|
--6--7--7-------------------------------------------|
-----------------0--------0--------0----------------|

                                                     
----------------------------------------------------|
-----------7----------------------------------------|
-----------------2h-3h-5--5--0--------5-------------|
--5-----------------------------2--------------5----|

                                                     
----------------------------------------------------|
----------------------------------------------------|
--6--7--7-------------------------------------------|
-----------------0--------0--------0----------------|

                                                     
----------------------------------------------------|
-----------7----------------------------------------|
-----------------2h-3h-5--5--0--------5-------------|
--5-----------------------------2--------------5----|

                                                     
----------------------------------------------------|
----------------------------------------------------|
--6--7--7-------------------------------------------|
-----------------0--------0--------0----------------|

                                                     
----------------------------------------------------|
-----------7----------------------------------------|
-----------------2h-3h-5--5--0--------5-------------|
--5-----------------------------2--------------5----|

                                                     
----------------------------------------------------|
----------------------------------------------------|
--6--7--7-------------------------------------------|
-----------------0--------0--------0--0-------------|

  P
----------------------------|
--4-------------------------|
----------------------------|
----------------------------|


----------------------------------------------------|
-----------------------2-----------4--------2--2----|
-----------------2h-4--------2h-4--------4----------|
----------------------------------------------------|


--------------------------4p-2----------------------|
--------------------------------4p-2--x-------------|
-----------------------------------------2b--0------|
----------------------------------------------------|


----------------------------------------------------|
-----------------------2-----------4--------2--2----|
-----------------2h-4--------2h-4--------4----------|
----------------------------------------------------|


----------------------------------------------------|
----------------------------------------------------|
--------------------0-----2--------4-----0----------|
--2--2--2-----2-----------------------------2--2----|


----------------------------------------------------|
----------------------------------------------------|
----------------------------------------------------|
-----------------2--0-----0--------0--------0-------|


----------------------------------------------------|
--------------------------------------------2-------|
--------------------0-----2--------4----------------|
--2--2--2-----2-------------------------------------|


----------------------------------------------------|
--4-----------2-----4-----2-----------2--3--4-------|
----------------------------------------------------|
-----------------------------------------------0----|


----------------------------------------------------|
----------------------------------------------------|
--------------------0-----2--------4-----0----------|
--2--2--2-----2-----------------------------2-------|


----------------------------------------------------|
----------------------------------------------------|
----------------------------------------------------|
-----------------2--0-----0--------0--------0-------|


----------------------------------------------------|
--------------------------------------------2-------|
--------------------0-----2--------4----------------|
--2--2--2-----2-------------------------------------|


----------------------------------------------------|
--4-----------2-----4-----2-----------2--3--4-------|
----------------------------------------------------|
-----------------------------------------------0----|


----------------------------------------------------|
----------------------------------------------------|
--------------------0-----2--------4-----0----------|
--2--2--2-----2-----------------------------2-------|


----------------------------------------------------|
----------------------------------------------------|
----------------------------------------------------|
-----------------2--0-----0--------0--------0-------|


----------------------------------------------------|
--------------------------------------------2-------|
--------------------0-----2--------4----------------|
--2--2--2-----2-------------------------------------|


----------------------------------------------------|
--4-----------2-----4-----2-----------2--3--4-------|
----------------------------------------------------|
----------------------------------------------------|


----------------------------------------------------|
----------------------------------------------------|
--------------------0-----2--------4-----0----------|
--2--2--2-----2-----------------------------2-------|


----------------------------------------------------|
----------------------------------------------------|
----------------------------------------------------|
-----------------2--0-----0--------0--------0-------|


----------------------------------------------------|
--------------------------------------------2-------|
--------------------0-----2--------4----------------|
--2--2--2-----2-------------------------------------|


----------------------------------------------------||
--4-----------2-----4-----2-----------2--3--4-------||
----------------------------------------------------||
-----------------------------------------------0----|| 
Добавлено: 17.10.2015
Другие материалы по этой песне:

Страница создана 17.10.2015
http://primanota.ru/level-42/sun-goes-down-living-it-up-chords.htm
Привет, Гость.
Предлагаем пройти революционный курс по гитаре.
Подарок от PrimaNota.Ru, забирай!