PrimaNota.ru - самый крупный в мире бесплатный архив песенных текстов, аккордов, табулатур и нот


Level 42 - Dance On Heavy Weather - текст песни, бас-таба, видео

Регистрация Запомнить меня
Войти через:  Facebook Google Twitter Vk Yandex Mail.ru

Level 42 - Dance On Heavy Weather - текст песни, бас-таба, видео

Печатать
Просмотров: 128
Tuning: E-A-D-G
~  = trill
x  = muted note
h  = hammer on
'' = natural harmonic
\  = slide down
pl = pluck

	! The whole song is slapped !
		
		*INTRO*

|-----------------------------------|
|-'5''5''5''5''5''5''5''5''5''5''5'-|
|-----------------------------------|
|-----------------------------------|

		*Verse 1 + OUTRO*

|-------------------|-----------------pl9-|
|-------------------|---------------------|
|----x7--9-10-9-7-9-|----x7--9-10-9-7-----|
|-0-x---------------|-0-x-----------------|
<--------3x-------->

		*Verse 2*

|--------|
|--------|
|--------|
|-pl12\--|

|------------------|------------------|
|------------------|------------------|
|------------------|-0----------------|
|-0--x1-2-3-3--3-0-|----x1-2-3-3--3-0-|

(variation)
|------------------|-------------------|
|------------------|----7-----2-----~2-|
|------------------|-------------------|
|-0--x1-2-3-3-2320-|-5-----4-----0-----|


		*Verse 3*

|-----------------------|-------|
|-0h20------------------|-------|
|------2------x2--------|-0-----|
|--------0---------0--x-|---0---|
<------3x------->

|----------|
|----------|
|-----5--x-|
|-0-3------|

|----------|
|----------|
|-----7--x-|
|-0-3------|

	Outro Verse 3:

|-12----11----9-------------797----|
|----14----13---11--h7--h9------11-|
|-------------------------------0--|
|----------------------------------|

		*Verse 4 (intro 'drum solo')*

|-~'5'------------|
|--------~'5'-----|
|-----------------|
|-----------------|

		*Solo*	2x

|-----------~pl9-~pl9------pl7-----------------------------|
|---------------------7-9------9-----------h5-h5-------3---|
|----x7--9-------------------------------3--------3-5----5-|
|-0-x----------------------------33-3-5--------------------|

	Succes !!!
				...Red Hair Jimmy ...
			maybe the bassolo is not correct,
			... you can find you're own bassolo to ?
Добавлено: 17.06.2012
Другие материалы по этой песне:
  • Аккорды и текст

Страница создана 17.06.2012
http://primanota.ru/level-42/dance-on-heavy-weather-chords.htm
Привет, Гость.
Предлагаем пройти революционный курс по гитаре.
Подарок от PrimaNota.Ru, забирай!