PrimaNota.ru - самый крупный в мире бесплатный архив песенных текстов, аккордов, табулатур и нот


Laura Marling - David - таба, видео

Регистрация Запомнить меня
Войти через:  Facebook Google Twitter Vk Yandex Mail.ru

Laura Marling - David - таба, видео

Печатать
Просмотров: 45
Авторы: Laura Marling

The * just means to repeat that last pattern, I didn't want to write each thing out 
every time.

Here is the intro and chorus:

c----------------------------------------------------------|
g---10---------9----------10----------12-------9-----------|
C------0----------7----------0-----------0--------7--------|
C---------0*---------0*--------0*-----------0--------0*----|
G----------------------------------------------------------|
C----------------------------------------------------------|


And this is for the verses:

c------5------5------4-------4------2------2-------4-----4------|
g--------0------0------0-------0-------4------4------0-----0----|
C----------7------7------5-------5-------0------0------5-----5--|
C---------------------------------------------------------------|
G---------------------------------------------------------------|
C---------------------------------------------------------------|

c------5------5------4-------4------2------2-------0-----0------|
g--------0------0------0-------0-------4------4------0-----0----|
C----------7------7------5-------5-------0------0------0-----0--|
C---------------------------------------------------------------|
G---------------------------------------------------------------|
C---------------------------------------------------------------|
Добавлено: 05.03.2016
Вам также может быть интересно:
Другие материалы по этой песне:
  • Аккорды и текст

Страница создана 05.03.2016
http://primanota.ru/laura-marling/david-chords.htm
Привет, Гость.
Предлагаем пройти революционный курс по гитаре.
Подарок от PrimaNota.Ru, забирай!