PrimaNota.ru - самый крупный в мире бесплатный архив песенных текстов, аккордов, табулатур и нот


Laura Marling - Rest My Troubles Away - таба, видео

Регистрация Запомнить меня
Войти через:  Facebook Google Twitter Vk Yandex Mail.ru

Laura Marling - Rest My Troubles Away - таба, видео

Печатать
Просмотров: 52
-------------------------------------------------------------------------------
                             Rest My Troubles Away - Laura Marling
-------------------------------------------------------------------------------
Tabbed by: jnmcclai
Tunning: CGCGGc

Notes: 

-Transcribed from acoustic and electric live versions
-Acoustic ver: https://www.youtube.com/watch?v=onKQpRIbrd8
-Electric ver: https://www.youtube.com/watch?v=DSd5aY356gA
-Electric ver Laura uses finger picking rather than strumming
-There are also additional fills and open strumming that gets thrown in
-Please point out any errors. Heckling welcome!
-Tried to align lyrics and tab
-No capo



************************************

| s   slide
| h   hammer-on
| p   pull-off
| u   strum up 
| d   strum down

************************************


INTRO:

c|---------------------------------------------------------------------------|
G|---------------------------------------------------------------------------|
C|------------------0h4---4s5s4---2---0--0--0--0----------------0--0--0------|
C|----------0h2h4---------------------0--0--0--0---0h4p0--------0--0--0------|
G|--0h2h4-----------------------------0--0--0--0------------4---4--4--4--4p0-|
C|------------------------------------0--0--0--0----------------0--0--0------|
                                      d  u  d  u                d  u  d
                                      
c|---------------------------------------------------------------------------|
G|---------------------------------------------------------------------------|
C|--0--0--0--0---------------------------------------------------------------|
C|--0--0--0--0---------------------------0---0---0---------------------------|
G|--0--0--0--0---4h5-5h7-7h9-9h10-10h12--12--12--12---10h12-9h10-7h9-5h7-4h5-|
C|--0--0--0--0---------------------------0---0---0---------------------------|
    d  u  d  u     acoustic fills      (not necessary)           

c|-------------------------|
G|-------------------------|
C|------------0--0--0--0---|
C|------------0--0--0--0---|
G|--0-2h4s5---0--0--0--0---|
C|------------0--0--0--0---|
              d  u  d  u

VERSE:


c|---------------------------------------------------------------------------|
G|---------------------------------------------------------------------------|
C|------------------0h4---4s5s4---2---0--0--0--0--------------0--0--0--0-----|
C|----------0h2h4---------------------0--0--0--0---0h4p0------0--0--0--0-----|
G|--0h2h4-----------------------------0--0--0--0-----------4--4--4--4--4h5---|
C|------------------------------------0--0--0--0--------------0--0--0--0-----|
                                      d  u  d  u              d  u  d  d


c|--------------|
G|--------------|
C|--0--0--0--0--|
C|--0--0--0--0--|
G|--5--5--5--5--|
C|--0--0--0--0--|
    d  u  d  u

CHORUS:

c|-------------------------------------------------------|
G|-------------------------------------------------------|
C|---9--9--9-------7--7--7-----5--5--5------0--0--0------|
C|---0--0--0-------0--0--0-----0--0--0------0--0--0------|
G|---9--9--9-------7--7--7-----5--5--5------0--0--0------|
C|---0--0--0-------0--0--0-----0--0--0------0--0--0------|
     d  d  u       d  d  u     d  d  u      d  d  u
                                       
    I've been out  walking     as I often   do   


c|-------------------------------------------------------|
G|-------------------------------------------------------|
C|---9--9--9-----7--7--7------5--5--5----------0--0--0---|
C|---0--0--0-----0--0--0------0--0--0----------0--0--0---|
G|---9--9--9-----7--7--7------5--5--5----------0--0--0---|
C|---0--0--0-----0--0--0------0--0--0----------0--0--0---|
     d  d  u     d  d  u      d  d  u          d  d  u

    humming a    tune         and thinking     of you 


c|-------------------------------------------------------|
G|-------------------------------------------------------|
C|---9--9--9-----7--7--7------5--5--5----------0--0--0---|
C|---0--0--0-----0--0--0------0--0--0----------0--0--0---|
G|---9--9--9-----7--7--7------5--5--5----------0--0--0---|
C|---0--0--0-----0--0--0------0--0--0----------0--0--0---|
     d  d  u     d  d  u      d  d  u          d  d  u

     I saw a     man          asleep by        the road


c|-------------------------------------------------------|
G|-------------------------------------------------------|
C|---9--9--9-------7--7--7------5--5--5--------0--0--0---|
C|---0--0--0-------0--0--0------0--0--0--------0--0--0---|
G|---9--9--9-------7--7--7------5--5--5--------0--0--0---|
C|---0--0--0-------0--0--0------0--0--0--------0--0--0---|
     d  d  u       d  d  u      d  d  u        d  d  u

     hanging on    tightly      to his little  load


c|---------------------------------------------------------------------------|
G|---------------------------------------------------------------------------|
C|------------------0h4---4s5s4---2---0--0--0--0--------------0--0--0--0-----|
C|----------0h2h4---------------------0--0--0--0--------------0--0--0--0-----|
G|--0h2h4-----------------------------0--0--0--0---0h4p0---4--4--4--4--4h5---|
C|------------------------------------0--0--0--0--------------0--0--0--0-----|
                                      d  u  d  u              d  u  d  d

c|--------------|
G|--------------|
C|--0--0--0--0--|
C|--0--0--0--0--|
G|--5--5--5--5--|
C|--0--0--0--0--|
    d  u  d  u

c|------------------------------------------------------------|
G|------------------------------------------------------------|
C|---9--9--9-----7--7--7-------5--5--5--------------0--0--0---|
C|---0--0--0-----0--0--0-------0--0--0--------------0--0--0---|
G|---9--9--9-----7--7--7-------5--5--5--------------0--0--0---|
C|---0--0--0-----0--0--0-------0--0--0--------------0--0--0---|
     d  d  u     d  d  u       d  d  u              d  d  u
                                       
     He's got    nothing but   the road under his   head


c|--------------------------------------------------------------|
G|--------------------------------------------------------------|
C|---9--9--9-----7--7--7---------5--5--5-------------0--0--0----|
C|---0--0--0-----0--0--0---------0--0--0-------------0--0--0----|
G|---9--9--9-----7--7--7---------5--5--5-------------0--0--0----|
C|---0--0--0-----0--0--0---------0--0--0-------------0--0--0----|
     d  d  u     d  d  u         d  d  u             d  d  u

     I'm so      fucking glad    that I sleep in a    bed
 

c|------------------------------------------------------------|
G|------------------------------------------------------------|
C|---9--9--9----7--7--7-----------5--5--5---------0--0--0-----|
C|---0--0--0----0--0--0-----------0--0--0---------0--0--0-----|
G|---9--9--9----7--7--7-----------5--5--5---------0--0--0-----|
C|---0--0--0----0--0--0-----------0--0--0---------0--0--0-----|
     d  d  u    d  d  u           d  d  u         d  d  u

     I'm so     ashamed that I    get up every    day


c|----------------------------------------------------------------|
G|----------------------------------------------------------------|
C|---9--9--9--------7--7--7-------------5--5--5---------0--0--0---|
C|---0--0--0--------0--0--0-------------0--0--0---------0--0--0---|
G|---9--9--9--------7--7--7-------------5--5--5---------0--0--0---|
C|---0--0--0--------0--0--0-------------0--0--0---------0--0--0---|
     d  d  u        d  d  u             d  d  u         d  d  u

     and think of   all the reasons     I can piss it   away...



c|----------------------------------------------------------------------------|
G|----------------------------------------------------------------------------|
C|------------------0h4---4s5s4---2---0--0--0--0---------------0--0--0--0-----|
C|----------0h2h4---------------------0--0--0--0---0h4p0-------0--0--0--0-----|
G|--0h2h4-----------------------------0--0--0--0-----------4---4--4--4--4h5---|
C|------------------------------------0--0--0--0---------------0--0--0--0-----|
                                      d  u  d  u               d  u  d  d

c|--------------|
G|--------------|
C|--0--0--0--0--|
C|--0--0--0--0--|
G|--5--5--5--5--|
C|--0--0--0--0--|
    d  u  d  u



BRIDGE:

c|--------------------------------------------------------------------------------|
G|--------------------------------------------------------------------------------|
C|--0--0--0-------0--0--0-----------0--0--0-0--0--0---0--0--0---0--0--0---0--0--0-|
C|--0--0--0-------0--0--0-----------0--0--0-0--0--0---0--0--0---0--0--0---0--0--0-|
G|--4--4--4-------2--2--2-----------5--5--5s9--9--9---4--4--4---2--2--2---0--0--0-|
C|--0--0--0-------0--0--0-----------0--0--0-0--0--0---0--0--0---0--0--0---0--0--0-|
    d  d  u       d  d  u           d  d  u d  d  u   d  d  u   d  d  u   d  d  u

    If I don't    think about it,   it's okay



c|--------------------------------------------------------------------------------|
G|--------------------------------------------------------------------------------|
C|--0--0--0-------0--0--0-----------0--0--0---------------------------------------|
C|--0--0--0-------0--0--0-----------0--0--0---------------------------------------|
G|--4--4--4-------2--2--2-----------5--5--5---------------------------------------|
C|--0--0--0-------0--0--0-----------0--0--0---------------------------------------|
    d  d  u       d  d  u           d  d  u

    If I don't    think about it,   it don't go away


c|----------------------------------------------------------------------------|
G|----------------------------------------------------------------------------|
C|------------------0h4---4s5s4---2---0--0--0--0---------------0--0--0--0-----|
C|----------0h2h4---------------------0--0--0--0---0h4p0-------0--0--0--0-----|
G|--0h2h4-----------------------------0--0--0--0-----------4---4--4--4--4h5---|
C|------------------------------------0--0--0--0---------------0--0--0--0-----|
                                      d  u  d  u               d  u  d  d

c|--------------|
G|--------------|
C|--0--0--0--0--|
C|--0--0--0--0--|
G|--5--5--5--5--|
C|--0--0--0--0--|
    d  u  d  u

c|------------------------------------------------------------|
G|------------------------------------------------------------|
C|---9--9--9-------7--7--7-------5--5--5------------0--0--0---|
C|---0--0--0-------0--0--0-------0--0--0------------0--0--0---|
G|---9--9--9-------7--7--7-------5--5--5------------0--0--0---|
C|---0--0--0-------0--0--0-------0--0--0------------0--0--0---|
     d  d  u       d  d  u       d  d  u            d  d  u
                                       
     I was gonna   keep walking  but I went back   to his place


c|------------------------------------------------------------|
G|------------------------------------------------------------|
C|---9--9--9-------7--7--7-----------5--5--0-------0--0--0----|
C|---0--0--0-------0--0--0-----------0--0--0-------0--0--0----|
G|---9--9--9-------7--7--7-----------5--5--5-------0--0--0----|
C|---0--0--0-------0--0--0-----------0--0--0-------0--0--0----|
     d  d  u       d  d  u           d  d  u       d  d  u

     looked down   to see signs of   life on his   face
 

c|------------------------------------------------------------|
G|------------------------------------------------------------|
C|---9--9--9----7--7--7-----------5--5--5---------0--0--0-----|
C|---0--0--0----0--0--0-----------0--0--0---------0--0--0-----|
G|---9--9--9----7--7--7-----------5--5--5---------0--0--0-----|
C|---0--0--0----0--0--0-----------0--0--0---------0--0--0-----|
     d  d  u    d  d  u           d  d  u         d  d  u

     He looks   alright in the    land of the     nod


c|-------------------------------------------------------------------|
G|-------------------------------------------------------------------|
C|---9--9--9------7--7--7-------------5--5--5--------------0--0--0---|
C|---0--0--0------0--0--0-------------0--0--0--------------0--0--0---|
G|---9--9--9------7--7--7-------------5--5--5--------------0--0--0---|
C|---0--0--0------0--0--0-------------0--0--0--------------0--0--0---|
     d  d  u      d  d  u             d  d  u              d  d  u

     Has anyone   ever said, "sleep   brings you closer to  god"?



c|----------------------------------------------------------------------------|
G|----------------------------------------------------------------------------|
C|------------------0h4---4s5s4---2---0--0--0--0---------------0--0--0--0-----|
C|----------0h2h4---------------------0--0--0--0---0h4p0-------0--0--0--0-----|
G|--0h2h4-----------------------------0--0--0--0-----------4---4--4--4--4h5---|
C|------------------------------------0--0--0--0---------------0--0--0--0-----|
                                      d  u  d  u               d  u  d  u

c|--------------|
G|--------------|
C|--0--0--0--0--|
C|--0--0--0--0--|
G|--5--5--5--5--|
C|--0--0--0--0--|
    d  u  d  u

c|-----------------------------------------------------------------------------------------------------|
G|-----------------------------------------------------------------------------------------------------|
C|--0--0--0-------------0--0--0-------0--0--0-0--0--0---0--0--0-----------0--0--0-------------0--0--0--|
C|--0--0--0-------------0--0--0-------0--0--0-0--0--0---0--0--0-----------0--0--0-------------0--0--0--|
G|--4--4--4-------------2--2--2-------5--5--5s9--9--9---4--4--4-----------2--2--2-------------0--0--0--|
C|--0--0--0-------------0--0--0-------0--0--0-0--0--0---0--0--0-----------0--0--0-------------0--0--0--|
    d  d  u             d  d  u       d  d  u d  d  u   d  d  u           d  d  u             d  d  u

    That's the kind of  stupid shit   people say        when they can't   justify what they   do with their day





c|-----------------------------------------------------------------------------------------------------|
G|-----------------------------------------------------------------------------------------------------|
C|--0--0--0-------------0--0--0-------0--0--0-0--0--0---0--0--0-----------0--0--0-------------0--0--0--|
C|--0--0--0-------------0--0--0-------0--0--0-0--0--0---0--0--0-----------0--0--0-------------0--0--0--|
G|--4--4--4-------------2--2--2-------5--5--5s9--9--9---4--4--4-----------2--2--2-------------0--0--0--|
C|--0--0--0-------------0--0--0-------0--0--0-0--0--0---0--0--0-----------0--0--0-------------0--0--0--|
    d  d  u             d  d  u       d  d  u d  d  u   d  d  u           d  d  u             d  d  u

    That's the kind of  stupid shit   people say        when they can't   justify what they   do with their day



c|----------------------------------------------------------------------------|
G|----------------------------------------------------------------------------|
C|------------------0h4---4s5s4---2---0--0--0--0---------------0--0--0--0-----|
C|----------0h2h4---------------------0--0--0--0---0h4p0-------0--0--0--0-----|
G|--0h2h4-----------------------------0--0--0--0-----------4---4--4--4--4h5---|
C|------------------------------------0--0--0--0---------------0--0--0--0-----|
                                      d  u  d  u               d  u  d  u

c|--------------|
G|--------------|
C|--0--0--0--0--|
C|--0--0--0--0--|
G|--5--5--5--5--|
C|--0--0--0--0--|
    d  u  d  u


BRIDGE:

c|---------------------------------------------------|
G|---------------------------------------------------|
C|--9--9--9---10--10--10----------9--9--9---9--9--9--|
C|--0--0--0---0---0---0-----------0--0--0---0--0--0--|
G|--9--9--9---10--10--10----------9--9--0---9--9--9--|
C|--0--0--0---0---0---0-----------0--0--9---0--0--0--|
    d  d  u   d   d   u           d  d  u   d  d  u  

              I'm tired           I guess

c|---------------------------------------------------|
G|---------------------------------------------------|
C|--9--9--9---10--10--10----------9--9--9---9--9--9--|
C|--0--0--0---0---0---0-----------0--0--0---0--0--0--|
G|--9--9--9---10--10--10----------9--9--0---9--9--9--|
C|--0--0--0---0---0---0-----------0--0--9---0--0--0--|
    d  d  u   d   d   u           d  d  u   d  d  u  

              Been overthinking   my day              


c|---------------------------------------------------|
G|---------------------------------------------------|
C|--9--9--9---10--10--10----------9--9--9---9--9--9--|
C|--0--0--0---0---0---0-----------0--0--0---0--0--0--|
G|--9--9--9---10--10--10----------9--9--0---9--9--9--|
C|--0--0--0---0---0---0-----------0--0--9---0--0--0--|
    d  d  u   d   d   u           d  d  u   d  d  u  

              I'll creep into     my bed


c|------------------------------------------------------------------------|
G|------------------------------------------------------------------------|
C|---9--9--9------7--7--7-------------5--5--5-----------0--0--0-----------|
C|---0--0--0------0--0--0-------------0--0--0-----------0--0--0-----------|
G|---9--9--9------7--7--7-------------5--5--5-----------4--4--4-----------|
C|---0--0--0------0--0--0-------------0--0--0-----------0--0--0-----------|
     d  d  u      d  d  u             d  d  u           d  d  u

                  Rest my             troubles...       


c|------------------------------------------------------------------------|
G|------------------------------------------------------------------------|
C|---9--9--9------7--7--7-------------5--5--5-----------0--0--0-----------|
C|---0--0--0------0--0--0-------------0--0--0-----------0--0--0-----------|
G|---9--9--9------7--7--7-------------5--5--5-----------4--4--4-----------|
C|---0--0--0------0--0--0-------------0--0--0-----------0--0--0-----------|
     d  d  u      d  d  u             d  d  u           d  d  u

     away


c|------------------------------------------------------------------------|
G|------------------------------------------------------------------------|
C|---9--9--9------7--7--7-------------5--5--5-----------0--0--0-----------|
C|---0--0--0------0--0--0-------------0--0--0-----------0--0--0-----------|
G|---9--9--9------7--7--7-------------5--5--5-----------4--4--4-----------|
C|---0--0--0------0--0--0-------------0--0--0-----------0--0--0-----------|
     d  d  u      d  d  u             d  d  u           d  d  u


OUTRO:

c|-----------------------------------------------------------------------------|
G|-----------------------------------------------------------------------------|
C|------------------0h4---4s5s4---2---0--0--0--0---------------0--0--0--0---0--|
C|----------0h2h4---------------------0--0--0--0---0h4p0-------0--0--0--0---0--|
G|--0h2h4-----------------------------0--0--0--0-----------4---4--4--4--4---0--|
C|------------------------------------0--0--0--0---------------0--0--0--0---0--|
                                      d  u  d  u               d  u  d  u
Добавлено: 05.03.2016
Другие материалы по этой песне:
  • Аккорды и текст

Страница создана 05.03.2016
http://primanota.ru/laura-marling/rest-my-troubles-away-chords.htm
Привет, Гость.
Предлагаем пройти революционный курс по гитаре.
Подарок от PrimaNota.Ru, забирай!