PrimaNota.ru - самый крупный в мире бесплатный архив песенных текстов, аккордов, табулатур и нот


Ladytron - Ghosts - аккорды и текст, бас-таба, видео

Регистрация Запомнить меня
Войти через:  Facebook Google Twitter Vk Yandex Mail.ru

Ladytron - Ghosts - аккорды и текст, бас-таба, видео

Печатать
Просмотров: 224
Авторы музыки: Ladytron

Ghosts
Ladytron
Intro:

e|-------------------------------------------------|
B|-------------------------------------------------|
G|-9-9--9-9-10-10----------------------------------|
D|------------------9-9-9-9-9-9-9-9-9-9-9-9-5-5-2-2|
A|------------------9-9-9-9-9-9-9-9-9-9-9-9-5-5-2-2|
E|------------------7-7-7-7-7-7-7-7-7-7-7-7-3-3-0-0|


In the first days
e|-------------------------------|
B|-------------------------------|
G|9-9-9-9-9-9-9-9-9-9-9-9-5-5-2-2|
D|9-9-9-9-9-9-9-9-9-9-9-9-5-5-2-2|
A|7-7-7-7-7-7-7-7-7-7-7-7-3-3-0-0|
E|-------------------------------|
 Of the springtime 
 Made you a prince with a thousand enemies 
 Made a trail of
 A thousand tears 
 Made you a prisoner inside your own secrecy.

 At the first hour 
 Of the springtime 
 Made you a prince with a thousand enemies 
 Now I see you 
 From the corner 
 Clock strikes and I know you will be drinking alone  



 There's a ghost in me 
e|--------------------------------|
B|--------------------------------|
G|-7-7-7-7-7-7-7-7-2-2-2-2-2-2-2-2|
D|-7-7-7-7-7-7-7-7-2-2-2-2-2-2-2-2|
A|-5-5-5-5-5-5-5-5-0-0-0-0-0-0-0-0|
E|--------------------------------|
 Who wants to say I'm sorry 
 Doesn't mean I'm sorry 

Добавлено: 07.05.2014
Другие материалы по этой песне:
  • Аккорды и текст

Страница создана 21.05.2012
http://primanota.ru/ladytron/ghosts-chords.htm
Привет, Гость.
Предлагаем пройти революционный курс по гитаре.
Подарок от PrimaNota.Ru, забирай!