PrimaNota.ru - самый крупный в мире бесплатный архив песенных текстов, аккордов, табулатур и нот


Lacuna Coil - A Ghost Between Us - бас-таба, видео

Регистрация Запомнить меня
Войти через:  Facebook Google Twitter Vk Yandex Mail.ru

Lacuna Coil - A Ghost Between Us - бас-таба, видео

Печатать
Просмотров: 158
|--------------------------------|
|--------------------------------|
|-0-----0/3-----/532-------------|
|-------------------------1------|
|--------------------------------|

|-------------------------------------------------------------------|
|-------------------------------------------------------------------|
|-0-0-0-00-0-0-0-3-3-3--3-3-3-/5-3-2-2-2-22-2-2-2-2-3---------------|
|-----------------------------------------------------1-1-1--1-1-1--|
|-------------------------------------------------------------------|

|-----------------------------------------------|
|-----------------------------------------------|
|-0----00---0-3---33-3-3-5-2----22---3----------|
|--------------------------------------1----1/--|
|-----------------------------------------------|

|-------------|
|-------------|
|-0-/10--9--8-|
|-------------| 2x
|-------------|

|---------------------------------|
|---------------------------------|
|-0-0--0-/10-10--10-9-9--9-8-8--8-|
|---------------------------------| 2x
|---------------------------------|

|-----------------------------------------------------------------|
|-----------------------------------------------------------------|
|---------------------------------0-0-0-0-0-0-0-0-3-3-3-3-3-3-3-3-| 2x
|-0-0-0-0-0-0-0-0-3-3-3-3-3-3-3-3---------------------------------|
|-----------------------------------------------------------------|

|----------------------------------------------------------------------------------------------|
|----------------------------------------------------------------------------------------------|
|-0-000-00-00-0-000-00-00-3-333-33-33-3-333-33-33-2-222-22-22-2-222-22-------------------------|
|----------------------------------------------------------------------1-111-11-11-1-111-11-11-|
|----------------------------------------------------------------------------------------------|

|-------------------------------------------------------------------|
|-------------------------------------------------------------------|
|-0-0-0-00-0-0-0-3-3-3--3-3-3-/5-3-2-2-2-22-2-2-2-2-3---------------|
|-----------------------------------------------------1-1-1--1-1-1--|
|-------------------------------------------------------------------|

|----------------------------------------------------------------------------------------------------------------|
|----------------------------------------------------------------------------------------------------------------|
|-0-0-0-0-0-0-0-0-0-0000-0000-3-3-3-3-3-3-3-3-3-3333-3/532-2-2-2-2-2-2-2-2-2222-3--------------------------------|
|-----------------------------------------------------------------------------------1-1-1-1-1-1-1-1-1-1111-1111--|
|----------------------------------------------------------------------------------------------------------------|

|-----------------|
|-----------------|
|-----2---1-------|
|-4-----------0---|
|-----------------|

|------------------------------------------------------------------|
|------------------------------------------------------------------|
|-000000000000000033333333333333332222222222222222-----------------| 2x
|-------------------------------------------------1111111111111111-|
|------------------------------------------------------------------|

|-------------|
|-------------|
|-0-/10--9--8-|
|-------------| 2x
|-------------|

|-------------------------------------------------------------------------|
|-------------------------------------------------------------------------|
|-0-0-0-0-0-0-0-0-10-10-10-10-10-10-10-10-9-9-9-9-9-9-9-9-8-8-8-8-8-8-8-8-| 2x
|-------------------------------------------------------------------------|
|-------------------------------------------------------------------------|

|-------4----/9-7-----7-5-----101010-3h5p3p0-2-|
|-----2-----------4-------3--------------------|
|-0--------------------------------------------|
|----------3-----------------------------------|
|----------------------------------------------|

|-------4----/9-14-9-7h9p7---11-----------101010-3h5p3p0-2-|
|-----2-------------------------11-------------------------|
|-0------------------------9-------9-8---------------------|
|----------3-----------------------------------------------|
|----------------------------------------------------------|

|-------4--(/5)---/9-14-9-7h9p7---11----------101010-3h5p3p0-2-|
|-----2------------------------------11------------------------|
|-0------------3----------------9-------9-8--------------------|
|--------------------------------------------------------------|
|--------------------------------------------------------------|

|---------------------------------|
|---------/5-5555--4-4444--3-3333-|
|-0-0000--------------------------| 2x
|---------------------------------|
|---------------------------------|

|----------------------------------|
|----------------------------------|
|-0--------------------------------|
|-------3----2----1---5-(let ring)-|
|----------------------------------|
Добавлено: 29.05.2012
Другие материалы по этой песне:
  • Аккорды и текст

Страница создана 29.05.2012
http://primanota.ru/lacuna-coil/a-ghost-between-us-chords.htm
Привет, Гость.
Предлагаем пройти революционный курс по гитаре.
Подарок от PrimaNota.Ru, забирай!