PrimaNota.ru - самый крупный в мире бесплатный архив песенных текстов, аккордов, табулатур и нот


Lacuna Coil - Enjoy The Silence - текст песни, таба, бас-таба, видео

Регистрация Запомнить меня
Войти через:  Facebook Google Twitter Vk Yandex Mail.ru

Lacuna Coil - Enjoy The Silence - текст песни, таба, бас-таба, видео

Печатать
Просмотров: 856
Авторы музыки: Martin L. Gore
Авторы текста: Martin L. Gore
----------------------------------------------------------------------------
                             Enjoy The Silence - Lacuna Coil
----------------------------------------------------------------------------

Tabbed by:Jordan
Email:jordangrainger@hotmail.co.uk

Tuning:Drop D    D,A,D,G,B,e

Intro:

e|-------9-----------|-------9-----------|\
B|--12------12---10--|--12------12---10--| \
G|-------------------|-------------------|  \ 
D|-9---9---9---9-----|-9---9---9---9-----|   \   
A|-------------------|-------------------|    \      
D|-------------------|-------------------|     \          
                                                Guitar 1(0:01-0:17)    
e|-------------------|-------------------|     /    
B|------------12--10-|------------12--10-|    /    
G|---12---11---------|---12---11---------|   /    
D|-9----9----9---9---|-9----9----9---9---|  /     
A|-------------------|-------------------| /  
D|-------------------|-------------------|/



e|-------9-------------|---------------------|\
B|---12------12--10----|------------12--10---| \           
G|---------------------|---12--11------------|  \<------ Guitar 1(0:18-0:33)        
D|-9---9----9---9------|-9----9----9--9------|   \        
A|---------------------|---------------------|    \             
D|---------------------|---------------------|     \         
                                                     X2      
e|---------------------|---------------------|     /        
B|---------------------|---------------------|    /        
G|---------------------|---------------------|   /        
D|-22222222--5555555---|-00000000--77777777--|  /<------ Guitar 2(0:18-0:33)         
A|-22222222--5555555---|-00000000--77777777--| /  
E|-22222222--5555555---|-00000000--77777777--|/

Verse 1:

e|--------------|
B|--------------|
G|--------------|    Guitar 1 & 2 (0:34-0:51)
D|--------------|
A|--------------|
D|--------------|

Chorus:

  
   all i wanted or needed is here in my arms
e|------------------------------------------\
B|------------------------------------------ \ 
G|------------------------------------------  \  
D|-22222222--55555555---00000000--77777777--   \     
A|-22222222--55555555---00000000--77777777--    \      
D|-22222222--55555555---00000000--77777777--     \                                                        
                                                   Guitar 2(0:52-1:10)           
  Words are unnecessary They can only do harm                     
e|------------------------------------------     /            
B|------------------------------------------    /            
G|------------------------------------------   /            
D|-22222222--55555555---00000000--77777777--  /               
A|-22222222--55555555---00000000--77777777-- /                
D|-22222222--55555555---00000000--77777777--/
                    
Post Chorus 1:

                        
e|-------9-----------|-------9-----------|\
B|--12------12---10--|--12------12---10--| \
G|-------------------|-------------------|  \ 
D|-9---9---9---9-----|-9---9---9---9-----|   \   
A|-------------------|-------------------|    \      
D|-------------------|-------------------|     \          
                                                Guitar 1(1:11-1:26)    
e|-------------------|-------------------|     /    
B|------------12--10-|------------12--10-|    /    
G|---12---11---------|---12---11---------|   /    
D|-9----9----9---9---|-9----9----9---9---|  /     
A|-------------------|-------------------| /  
D|-------------------|-------------------|/

Verse 2:

     Guitar 2(1:27-1:44)

   vows are spoken to be broken       feelings are intense words are trivial
e|--------------------------------------------------------------------------
B|--------------------------------------------------------------------------
G|--------------------------------------------------------------------------
D|-2~~~~~~~~~~~~~~5~~~~~~~~~~~~~0~~~~~~~~-----------------------------------
A|-2~~~~~~~~~~~~~~5~~~~~~~~~~~~~0~~~~~~~~-----------------------------------
D|-2~~~~~~~~~~~~~~5~~~~~~~~~~~~~0~~~~~~~~-----------------------------------


   pleasures remain so does the pain    words are meaningless and forgetable
e|--------------------------------------------------------------------------
B|--------------------------------------------------------------------------
G|--------------------------------------------------------------------------
D|-2~~~~~~~~~~~~~~5~~~~~~~~~~~~~0~~~~~~~~-----------------------------------
A|-2~~~~~~~~~~~~~~5~~~~~~~~~~~~~0~~~~~~~~-----------------------------------
D|-2~~~~~~~~~~~~~~5~~~~~~~~~~~~~0~~~~~~~~-----------------------------------


Chorus(1:45-2:02)


Post Chorus 2:

e|-------9-------------|---------------------|\
B|---12------12--10----|------------12--10---| \           
G|---------------------|---12--11------------|  \<------ Guitar 1(2:05-2:22)        
D|-9---9----9---9------|-9----9----9--9------|   \        
A|---------------------|---------------------|    \             
D|---------------------|---------------------|     \         
                                                     X2      
e|---------------------|---------------------|     /        
B|---------------------|---------------------|    /        
G|---------------------|---------------------|   /        
D|-22222222--5555555---|-00000000--77777777--|  /<------ Guitar 2(2:05-2:22)         
A|-22222222--5555555---|-00000000--77777777--| /  
D|-22222222--5555555---|-00000000--77777777--|/


Bridge / Chorus??:

e|--------------|
B|--------------|
G|--------------|    Guitar 1 & 2 (2:23-2:38)
D|--------------|
A|--------------|
D|--------------|

Chorus(instead of X2 X1) guitar 2 (2:39-2:55)

Post Chorus 2 (instead of X2 X4)  (2:56-3:33)

Outro : 

e|-------9-----------|-------9-----------|\
B|--12------12---10--|--12------12---10--| \
G|-------------------|-------------------|  \ 
D|-9---9---9---9-----|-9---9---9---9-----|   \   
A|-------------------|-------------------|    \      
D|-------------------|-------------------|     \          
                                                Guitar 1(3:34-Fade out)    
e|-------------------|-------------------|     /    
B|------------12--10-|------------12--10-|    /    
G|---12---11---------|---12---11---------|   /    
D|-9----9----9---9---|-9----9----9---9---|  /     
A|-------------------|-------------------| /  
D|-------------------|-------------------|/

i think/hope this is near perfect lol please rate


| /  slide up
| \  slide down
| h  hammer-on
| p  pull-off
| ~  vibrato
| +  harmonic
| x  Mute note
Добавлено: 03.07.2012
Другие материалы по этой песне:

Страница создана 09.03.2012
http://primanota.ru/lacuna-coil/enjoy-the-silence-chords.htm
Привет, Гость.
Предлагаем пройти революционный курс по гитаре.
Подарок от PrimaNota.Ru, забирай!