PrimaNota.ru - самый крупный в мире бесплатный архив песенных текстов, аккордов, табулатур и нот


Kyuss - Thee Ol Boozeroony - таба, видео

Регистрация Запомнить меня
Войти через:  Facebook Google Twitter Vk Yandex Mail.ru

Kyuss - Thee Ol Boozeroony - таба, видео

Печатать
Просмотров: 140
any comments or questions about the tab just contact me on kyuss89@hotmail.co.uk

I Have used E tuning To tab this but as soon as i find my tuner i will tab this in C 
i reckon you could get away with playing this version in C but if all your after is to play 
with the CD this tab should be fine .

P= pull off
h= hammer on
px= palm mute
~= vibrato
br= bend then release
\ = slide to higher pich

Thee ol' Boozeroony By Kyuss

E[-------------------]
B[-------------------]
G[-------------------]
D[-19p17----17h19----]
A[-------19-------20-]
E[-------------------]2x

Heavy Distortion
E[-----------------------------------------]
B[-----------------------------------------]
G[-----------------------------------------]
D[-14-14-14-14-14-2----12-12-12-12-12-2----]
A[-14-14-14-14-14-2----12-12-12-12-12-2----]
E[-12-12-12-12-12-0----10-10-10-10-10-0----]4x

If you have reverb just a little makes these parts sound great.
E[-----------------------------------|-------------------------------]
B[-----------------------------------|-------------------------------]
G[-----------------------------------|-------------------------------]
D[-----------17~17-19-17----17~17----|-----------17~17-2-2--2-5-5--5-]
A[-----17h19-------------19-------19~|-----17h19-------2-2--2-5-5--5-]
E[-0-0-------------------------------|-0-0-------------0-0--0-3-3--3-]
  pxpx                          (3x)  pxpx             (4th time)

E[-----------------------------------|----------------------------------]
B[-----------------------------------|----------------------------------]
G[-----------------------------------|----------------------------------]
D[-----------17~17-19-17----17~17----|-----------17~17-19-17-19br-17----]
A[-----17h19-------------19-------19~|-----17h19---------------------19-]
E[-0-0-------------------------------|-0-0------------------------------]
  pxpx                                pxpx

E[-----------------------------------|-------------------------------]
B[-----------------------------------|-------------------------------]
G[-----------------------------------|-------------------------------]
D[-----------17~17-19-17----17~17----|-----------17~17-2-2--2-5-5--5-]
A[-----17h19-------------19-------19~|-----17h19-------2-2--2-5-5--5-]
E[-0-0-------------------------------|-0-0-------------0-0--0-3-3--3-]
  pxpx                                pxpx

E[---------------------------------------]
B[------------------------15151515151515-]
G[-----15\17-15~-15-15-17-17171717171717-]
D[------------------------(Bend-17-Here-)]
A{---------------------------------------]
E[-0-0-----------------------------------]8x
  pxpx

E[-----------------------------------|----------------------------------]
B[-----------------------------------|----------------------------------]
G[-----------------------------------|----------------------------------]
D[-----------17~17-19-17----17~17----|-----------17~17-19-17-19br-17----]
A[-----17h19-------------19-------19~|-----17h19---------------------19-]
E[-0-0-------------------------------|-0-0------------------------------]
  pxpx                                pxpx


E[-----------------------------------|-------------------------------]
B[-----------------------------------|-------------------------------]
G[-----------------17----------------|-------------------------------]
D[-----------17~17----19-17-17-17h19~|-----------17~17-2-2--2-5-5--5-]
A[-----17h19-------------------------|-----17h19-------2-2--2-5-5--5-]
E[-0-0-------------------------------|-0-0-------------0-0--0-3-3--3-]
  pxpx                                pxpx

E[----------------------------------]-------------------------------]
B[----------------------------------]-------------------------------]
G[----------------------------------]-----------------17br----------]
D[-----------17~17-19-17-19br-17----]-----------17~17------19br-----]
A[-----17h19---------------------19-]-----17h19-----------------19~-]
E[-0-0------------------------------]-0-0---------------------------]
  pxpx                               pxpx

E[-------------------------------]-------------------------------]
B[-------------------------------]-------------------------------]
G[-----------------19br----------]-------------------------------]
D[-----------17~17------19br-----]-----------17~17-2-2--2-5-5--5-]
A[-----17h19-----------------19~-]-----17h19-------2-2--2-5-5--5-]
E[-0-0---------------------------]-0-0-------------0-0--0-3-3--3-]
  pxpx

E[---------------------------------------]
B[------------------------15151515151515-]
G[-----15\17-15~-15-15-17-17171717171717-]
D[------------------------(Bend-15-Here-)]
A{---------------------------------------]
E[-0-0-----------------------------------]8x
  pxpx

Heavy Distortion
E[-----------------------------------------|--------------]
B[-----------------------------------------|--------------]
G[-----------------------------------------|--------------]
D[-14-14-14-14-14-2----12-12-12-12-12-2----|-2............]
A[-14-14-14-14-14-2----12-12-12-12-12-2----|-2............]
E[-12-12-12-12-12-0----10-10-10-10-10-0----|-0............]
                               6x Then End on

Keep kyuss alive.
Добавлено: 15.03.2012
Другие материалы по этой песне:

Страница создана 24.02.2012
http://primanota.ru/kyuss/thee-ol-boozeroony-chords.htm
Привет, Гость.
Предлагаем пройти революционный курс по гитаре.
Подарок от PrimaNota.Ru, забирай!