PrimaNota.ru - самый крупный в мире бесплатный архив песенных текстов, аккордов, табулатур и нот


Kutless - Beyond The Surface - текст песни, таба, бас-таба, видео

Регистрация Запомнить меня
Войти через:  Facebook Google Twitter Vk Yandex Mail.ru

Kutless - Beyond The Surface - текст песни, таба, бас-таба, видео

Печатать
Просмотров: 197
Song:  Beyond the Surface
Band:  Kutless
Album: Hearts of the Innocent

This is my first tab. I jammed with Ryan Shrout for a bit during youth group a couple of nights,
and he taught me the entire thing. Playing along with the song is recommended so as to get the 
correct rhythm. Sorry it's so long :P Comment all you want. Enjoy, and God bless.

Drop Db tuning.

Info:
h     – Hammer-on
p     – Pull-off
\     - Quick fall
/     - Slide up
~     - Vibrato
X     - Mute strings (silence, not strummed)
Pm .. - Palm mute

Intro: (00:00)
eb|------------|---------|-------------|--------|-------------|
Bb|------------|---------|-------------|--------|-------------|
Gb|------------|---------|-------------|--------|-------------|
Db|----10101012|\-00-0000|000010101012\|-00-0000|000010101012\|
Ab|----10101012|\-00-0000|000010101012\|-00-0000|000010101012\|
Db|----10101012|\-00-0000|000010101012\|-00-0000|000010101012\|

eb|--------|------------|--------|---------|
Bb|--------|------------|--------|---------|
Gb|--------|------------|--------|---------|
Db|-00-0000|000010101010|--3-5---|5-7-00070|
Ab|-00-0000|000010101010|--5-7---|7-6-00070|
Db|-00-0000|000010101010|00----00|----00070|
Pm                       ..    ..     ... .

Verse 1: (00:13)
eb|--------|------------|-------|------------|
Bb|--------|------------|-------|------------|
Gb|--------|------------|-------|------------|
Db|00000000|---00----7\0|0000000|---00----7\0|
Ab|00000000|3p0005p3-7\0|0000000|3p0005p3-7\0|
Db|00000000|3p0005p3-7\0|0000000|3p0005p3-7\0|
Pm ........    ..      . .......    ..      .

eb|--------|-----------|--------|-----------|
Bb|--------|-----------|--------|-----------|
Gb|--------|-----------|--------|-----------|
Db|00000000|---00-----0|--7-0570|--7-09107\0|
Ab|00000000|3p0005p3--0|--7-0570|--7-09107\0|
Db|00000000|3p0005p3--0|--7-0570|--7-09107\0|
Pm ........    ..                          .

eb|--------|------------|-------|------------|
Bb|--------|------------|-------|------------|
Gb|--------|------------|-------|------------|
Db|00000000|---00----7\0|0000000|---00----7\0|
Ab|00000000|3p0005p3-7\0|0000000|3p0005p3-7\0|
Db|00000000|3p0005p3-7\0|0000000|3p0005p3-7\0|
Pm ........    ..      . .......    ..

eb|--------|-----------|--------|----------|
Bb|--------|-----------|--------|----------|
Gb|--------|-----------|--------|----------|
Db|00000000|---00-----0|--7-0570|--7-091088|
Ab|00000000|3p0005p3--0|--7-0570|--7-091088|
Db|00000000|3p0005p3--0|--7-0570|--7-091088|
Pm ........    ..

Bridge: (00:37)
eb|--------|--------|--------|--------|
Bb|--------|--------|--------|--------|
Gb|--------|--------|--------|--------|
Db|88888885|5--7----|--3-5---|5-7-0008|
Ab|88888885|5--7----|--5-7---|7-6-0008|
Db|88888885|5--7----|00----00|----0008|
Pm                   ..    ..

Repeat from “bridge” and continue to this next phrase

eb|--------|--------|--------|--------|
Bb|--------|--------|--------|--------|
Gb|--------|--------|--------|--------|
Db|-88-8888|88888887|-77-7777|77777777|
Ab|-88-8888|88888887|-77-7777|77777777|
Db|-88-8888|88888887|-77-7777|77777777|
Pm

Chorus: (00:55)
eb|--------|--------|--------|--------|
Bb|--------|--------|--------|--------|
Gb|----7777|----777-|--------|--------|
Db|0-0-7777|0-0----8|-88-8883|-3333355|
Ab|0-0-5555|0-0-5558|-88-8883|-3333355|
Db|0-0-----|0-0----8|-88-8883|-3333355|
Pm

eb|--------|--------|--------|--------|
Bb|--------|--------|--------|--------|
Gb|----7777|----777-|--------|--------|
Db|0-0-7777|0-0-7778|-88-8883|3333335-|
Ab|0-0-5555|0-0-5558|-88-8883|3333335-|
Db|0-0-----|0-0----8|-88-8883|3333335-|
Pm

eb|--------|--------|--------|--------|
Bb|--------|--------|--------|--------|
Gb|----7777|----777-|--------|--------|
Db|0-0-7777|0-0-7778|-88-8888|33333333|
Ab|0-0-5555|0-0-5558|-88-8888|33333333|
Db|0-0-----|0-0----8|-88-8888|33333333|
Pm

eb|--------|--------|--------|----------------|
Bb|--------|--------|--------|----------------|
Gb|--------|--------|--------|----------------|
Db|55555555|55555777|88888888|1010101010101010|
Ab|55555555|55555777|88888888|1010101010101010|
Db|55555555|55555777|88888888|1010101010101010|
Pm

Into verse 2:
eb|--------|------------|-------|------------|
Bb|--------|------------|-------|------------|
Gb|--------|------------|-------|------------|
Db|00000000|---00----7\0|0000000|---00----7\0|
Ab|00000000|3p0005p3-7\0|0000000|3p0005p3-7\0|
Db|00000000|3p0005p3-7\0|0000000|3p0005p3-7\0|
Pm  .......    ..      . .......    ..      .


Verse 2: (01:20)
eb|--------|------------|-------|------------|
Bb|--------|------------|-------|------------|
Gb|--------|------------|-------|------------|
Db|00000000|---00----7\0|0000000|---00----7\0|
Ab|00000000|3p0005p3-7\0|0000000|3p0005p3-7\0|
Db|00000000|3p0005p3-7\0|0000000|3p0005p3-7\0|
Pm  .......    ..      . .......    ..      .

eb|--------|-----------|--------|-----------|
Bb|--------|-----------|--------|-----------|
Gb|--------|-----------|--------|-----------|
Db|00000000|---00-----0|--7-0570|--7-09107\0|
Ab|00000000|3p0005p3--0|--7-0570|--7-09107\0|
Db|00000000|3p0005p3--0|--7-0570|--7-09107\0|
Pm ........    ..                          .
eb|--------|------------|-------|------------|
Bb|--------|------------|-------|------------|
Gb|--------|------------|-------|------------|
Db|00000000|---00----7\0|0000000|---00----7\0|
Ab|00000000|3p0005p3-7\0|0000000|3p0005p3-7\0|
Db|00000000|3p0005p3-7\0|0000000|3p0005p3-7\0|
Pm ........    ..      . .......    ..      .

eb|--------|-----------|--------|----------|
Bb|--------|-----------|--------|----------|
Gb|--------|-----------|--------|----------|
Db|00000000|---00-----0|--7-0570|--7-09108-|
Ab|00000000|3p0005p3--0|--7-0570|--7-09108-|
Db|00000000|3p0005p3--0|--7-0570|--7-09108-|
Pm ........    ..

Bridge: (01:51)
eb|--------|--------|--------|--------|
Bb|--------|--------|--------|--------|
Gb|--------|--------|--------|--------|
Db|-8888885|-557-77-|--3-5---|5-7-0008|
Ab|-8888885|-557-77-|--5-7---|7-6-0008|
Db|-8888885|-557-77-|00----00|----0008|
Pm                   ..    ..	

Repeat from “bridge” and continue to this next phrase

eb|--------|--------|--------|--------|
Bb|--------|--------|--------|--------|
Gb|--------|--------|--------|--------|
Db|-8888888|88888887|-77-7777|77777777|
Ab|-8888888|88888887|-77-7777|77777777|
Db|-8888888|88888887|-77-7777|77777777|
Pm

Chorus: (02:09)
eb|--------|--------|--------|--------|
Bb|--------|--------|--------|--------|
Gb|----7777|----777-|--------|--------|
Db|0-0-7777|0-0-7778|-88-8883|-3333355|
Ab|0-0-5555|0-0-5558|-88-8883|-3333355|
Db|0-0-----|0-0----8|-88-8883|-3333355|
Pm

eb|--------|--------|--------|--------|
Bb|--------|--------|--------|--------|
Gb|----7777|----777-|--------|--------|
Db|0-0-7777|0-0-7778|-88-8883|3333335-|
Ab|0-0-5555|0-0-5558|-88-8883|3333335-|
Db|0-0-----|0-0----8|-88-8883|3333335-|
Pm

eb|--------|--------|--------|--------|
Bb|--------|--------|--------|--------|
Gb|----7777|----777-|--------|--------|
Db|0-0-7777|0-0-7778|-88-8888|33333333|
Ab|0-0-5555|0-0-5558|-88-8888|33333333|
Db|0-0-----|0-0----8|-88-8888|33333333|
Pm

eb|--------|--------|--------|----------------|
Bb|--------|--------|--------|----------------|
Gb|--------|--------|--------|----------------|
Db|55555555|55555777|88888888|1010101010101010|
Ab|55555555|55555777|88888888|1010101010101010|
Db|55555555|55555777|88888888|1010101010101010|
Pm

Here the guitars split for the solo. Solo is played by guitar 1 while the bottom rhythm part
is played by guitar 2. It doesn't matter who is better because it's an easy solo but generally,
guitar 1 is more skilled.

Lead into solo: (02:33)

Guitar 2:
eb|--------|--------|--------|--------|--------|
Bb|--------|--------|--------|--------|--------|
Gb|--------|--------|--------|--------|--------|
Db|0-7-0570|-7-09108|-8888888|88888888|55555555|
Ab|0-7-0570|-7-09108|-8888888|88888888|55555555|
Db|0-7-0570|-7-09108|-8888888|88888888|55555555|
Pm

Guitar 1:
eb|--------|--------|-------10--|-------10--|10/131312-10-|
Bb|--------|-----10-|8-10p8-----|8-10p8-----|-------------|
Gb|--------|---97---|-----------|-----------|-------------|
Db|--------|--------|-----------|-----------|-------------|
Ab|--------|--------|-----------|-----------|-------------|
Db|--------|--------|-----------|-----------|-------------|
Pm

Guitar 2: (cont.)
eb|--------|--------|--------|--------|--------|
Bb|--------|--------|--------|--------|--------|
Gb|--------|--------|--------|--------|--------|
Db|55555555|33333333|33333333|--3-5---|5-7-0000|
Ab|55555555|33333333|33333333|--5-7---|7-6-0000|
Db|55555555|33333333|33333333|00----00|----0000|
Pm                   ..    ..     ....

Guitar 1: (cont.)
eb|10-10-10-10-|8h1010h88h1010h8|8h10-10-101010|10\------|
Bb|------------|----------------|--------------|---------|
Gb|------------|----------------|--------------|---------|
Db|------------|----------------|--------------|---------|
Ab|------------|----------------|--------------|---------|
Db|------------|----------------|--------------|---------|
Pm

Bridge 2:
eb|--------|--------|
Bb|--------|--------|
Gb|----7777|----7777|
Db|0-007777|0-0-7777|
Ab|0-005555|0-0-5555|
Db|0-000000|0-0-----|
Pm   ..

Chorus:
eb|--------|--------|--------|--------|
Bb|--------|--------|--------|--------|
Gb|----7777|----777-|--------|--------|
Db|0-0-7777|0-0-7778|-88-8883|-3333355|
Ab|0-0-5555|0-0-5558|-88-8883|-3333355|
Db|0-0-----|0-0----8|-88-8883|-3333355|
Pm

eb|--------|--------|--------|--------|
Bb|--------|--------|--------|--------|
Gb|----7777|----777-|--------|--------|
Db|0-0-7777|0-0-7778|-88-8883|3333335-|
Ab|0-0-5555|0-0-5558|-88-8883|3333335-|
Db|0-0-----|0-0----8|-88-8883|3333335-|
Pm

eb|--------|--------|--------|--------|
Bb|--------|--------|--------|--------|
Gb|----7777|----777-|--------|--------|
Db|0-0-7777|0-0-7778|-88-8888|33333333|
Ab|0-0-5555|0-0-5558|-88-8888|33333333|
Db|0-0-----|0-0----8|-88-8888|33333333|
Pm

eb|--------|--------|--------|----------------|
Bb|--------|--------|--------|----------------|
Gb|--------|--------|--------|----------------|
Db|55555555|55555777|88888888|1010101010101010|
Ab|55555555|55555777|88888888|1010101010101010|
Db|55555555|55555777|88888888|1010101010101010|
Pm

Outro:
eb|--------|-----|
Bb|--------|-----|
Gb|--------|-----|
Db|--3-5---|5-7\-|
Ab|--3-5---|7-6\-|
Db|00----00|-----|
Pm ..    ..
Добавлено: 12.06.2013
Другие материалы по этой песне:
  • Аккорды и текст

Страница создана 20.04.2012
http://primanota.ru/kutless/beyond-the-surface-chords.htm
Привет, Гость.
Предлагаем пройти революционный курс по гитаре.
Подарок от PrimaNota.Ru, забирай!