PrimaNota.ru - самый крупный в мире бесплатный архив песенных текстов, аккордов, табулатур и нот


Kutless - Down - текст песни, таба, видео

Регистрация Запомнить меня
Войти через:  Facebook Google Twitter Vk Yandex Mail.ru

Kutless - Down - текст песни, таба, видео

Печатать
Просмотров: 116
Down by Kutless
My favorite song from their self titled album
Song is in drop D


Intro:
e|------------------------|-------------------------------|
B|------------------------|-------------------------------|
G|------------------------|-------------------------------|
D|-----9-----------7------|------9-10--9--------7---------|
A|---7-----------5--------|----7---------7----5-----------|
D|-7------2----5--------0-|--7--------------5----------0--|

Verse
e|------------------------|-------------------------------|
B|------------------------|-------------------------------|
G|------------------------|-------------------------------|
D|-----9-----------7------|------9-10--9--------7---------|
A|---7-----------5--------|----7---------7----5-----------|
D|-7------2----5--------0-|--7--------------5----------0--|

e|-------------------------------------|
B|-------------------------------------|
G|-------------------------------------|
D|--7-7-7-7-7---5-5-5-5-5----0---------|
A|--7-7-7-7-7---5-5-5-5-5----0---------|
D|--7-7-7-7-7---5-5-5-5-5----0---------|

Pre-chorus
     P.M-----|
e|---------------------------------------|
B|---------------------------------------|
G|---------------------------------------|
D|--8-8-8-8-8-8-8-8-5-5-5-5-5-5-5-5------|
A|--8-8-8-8-8-8-8-8-5-5-5-5-5-5-5-5------|
E|--8-8-8-8-8-8-8-8-5-5-5-5-5-5-5-5------|

Chorus	    P.M				P.M
e|----------------------------------|------------------------------------|
B|----------------------------------|------------------------------------|
G|----------------------------------|------------------------------------|
D|-7-7-7-7-7--0--3-3-3--5-5-5-5h7-5-|-7-7-7-7-7--0--3-3-3--5-5-5/-10-10--|
A|-7-7-7-7-7--0--3-3-3--5-5-5-5---5-|-7-7-7-7-7--0--3-3-3--5-5-5/-10-10--|
D|-7-7-7-7-7--0--3-3-3--5-5-5-5---5-|-7-7-7-7-7--0--3-3-3--5-5-5/-10-10--|
	    P.M			  P.M-|  P.M
e|----------------------------------|-------------------|
B|----------------------------------|-------------------|
G|----------------------------------|-------------------|
D|-7-7-7-7-7--0--3-3-3--5-5-5-5h7-5-|-3-3-3-3-3-3-3-3-0-|
A|-7-7-7-7-7--0--3-3-3--5-5-5-5---5-|-3-3-3-3-3-3-3-3-0-|
D|-7-7-7-7-7--0--3-3-3--5-5-5-5---5-|-3-3-3-3-3-3-3-3-0-|

Verse ver. 2
Guitar 1
e|------------------------|-------------------------------|
B|------------------------|-------------------------------|
G|------------------------|-------------------------------|
D|-----9-----------7------|------9-10--9--------7---------|
A|---7-----------5--------|----7---------7----5-----------|
D|-7------2----5--------0-|--7--------------5----------0--|

Guitar 2
e|---0-----0-----0---3-------3------|-0-----0-----0---3------0--------|
B|-----1-----1---------3-------3----|---1-----1---------3------1------|
G|-2-----2-----2---0-----0-2-----2-2|-----2-----2---0-----0-2----2----|
D|----------------------------------|---------------------------------|
A|----------------------------------|---------------------------------|
D|----------------------------------|---------------------------------|

Bridge:
e|--------------------------------------------------------------------|
B|--------------------------------------------------------------------|
G|----------12-----------------10--------------5--------------5-------|
D|-------12----12----12-----10----10---8-----5---5---5------5---5---5-|
A|----10----------10------8----------8-----3-------3------3-------3---|
D|-10-------------------8----------------3--------------3-------------|

e|---------------------------------------------------------------------|
B|---------------------------------------------------------------------|
G|----------12-----------------10--------------5---------------7-------|
D|-------12----12----12-----10----10---8-----5---5---5-------7---7--7--|
A|----10----------10------8----------8-----3-------3-------5-------5---|
D|-10-------------------8----------------3---------------5-------------|



Chorus ver. 2
e|--------------------------------------|
B|--------------------------------------|
G|-------14--------10---------5---------|
D|----14----14---8----8-----5---5---5---|
A|-12----------8----------3-------3-----|
D|----------------------3---------------|


Intro X 1
Verse X 2
Pre-Chorus X 1
Chorus X 1
Verse ver.2 X 2
Pre-Chorus X 1
Chorus X 1
Bridge X 1
Chorus ver.2 X 2
Chorus X 1
Play the ending of the chorus twice



Добавлено: 24.07.2013
Другие материалы по этой песне:
  • Аккорды и текст

Страница создана 01.05.2012
http://primanota.ru/kutless/down-chords.htm
Привет, Гость.
Предлагаем пройти революционный курс по гитаре.
Подарок от PrimaNota.Ru, забирай!