PrimaNota.ru - самый крупный в мире бесплатный архив песенных текстов, аккордов, табулатур и нот


Крематорий - Клубника со льдом - аккорды и текст, видео

Регистрация Запомнить меня
Войти через:  Facebook Google Twitter Vk Yandex Mail.ru

Крематорий - Клубника со льдом - аккорды и текст, видео

Печатать
Просмотров: 1280
Уроки эстрадного вокала в Санкт-Петербурге
Клубника со льдом
Крематорий
(Начало)
Riff 1
   C              Dm             G          C       
E|-0-1-3------1-0---------0-1-0---------0----------|
H|--------2-------3--------------3--------3-1------|
G|--------0----------2--------------0----------0---|
D-----0--0--------------0----------2---|
A|-3--------------------0-------------2-----3------|
E|-----0----0--------------------3---------------0-|

Riff 2
   C              Dm             G        C         
E|-0-1-3------1-0---------0-1-0-----0--------------|
H|--------2-------3--------------3-----3--1--------|
G|--------0----------2----------------------3------|
D-----0--0------------------------4----|
A|-3--------------------0-----------------3-----5--|
E|-----0----0--------------------3-----------------|

  C            Dm      G             C
Когда уходит любовь, когда умирают львы
           Dm  G           C
И засыхают все аленькие цветки
Am           Dm          G              C
Блудные космонавты возвращаются в отчий дом -
C            Dm     G                 C
Она приходит сюда и ест клубнику со льдом

Riff 1

Riff 2

Она закрывает глаза, она шевелит губами
Она разрешает смотреть, и даже трогать руками
Каждый готов согреть ее своим теплом
Но она не любит мужчин, она любит клубнику со льдом

Riff 1

Riff 2

   Dm          G       Dm              G         
E|-5----5--------------5----5----5-------|
H|----6---6-5--3---3-----------6---6-5-3-|
G|----7----------4---4---------7---------|
D--------5-------------------|
A|-5-------------------5----5----5-------|
E--3---3-------------------3-|

Riff 2

Кто-то делит с ней хлеб, а кто-то в поте лица
Обливает грязной водой, тело ее из льда
Слезы текут с потолка, тает фруктовый дом...
Приятного аппетита всем, кто любит клубнику со льдом!

Riff 1

Riff 2
Добавлено: 21.07.2012
Другие материалы по этой песне:
  • Аккорды и текст

Страница создана 24.02.2012
http://primanota.ru/krematorii/klubnika-so-ldom-chords.htm
Привет, Гость.
Предлагаем пройти революционный курс по гитаре.
Подарок от PrimaNota.Ru, забирай!