PrimaNota.ru - самый крупный в мире бесплатный архив песенных текстов, аккордов, табулатур и нот


Kreator - Stronger Than Before - текст песни, таба, видео

Регистрация Запомнить меня
Войти через:  Facebook Google Twitter Vk Yandex Mail.ru

Kreator - Stronger Than Before - текст песни, таба, видео

Печатать
Просмотров: 130
Уроки эстрадного вокала в Санкт-Петербурге
As recorded by Kreator
(From the 1997 Album OUTCAST)

Transcribed by MetalVital the "Frantic Machine"
        

Words by Mille Petrozza Music by Kreator

Gtr I (D G C F A D) - 'Mille'
Gtr II (D G C F A D) - 'Thomas'
Gtr III (D G C F A D) - 'Thomas'

 Intro
  Moderate Rock Q=144
  F#5        E5         F#5        A5        G5
 4/4
  Gtrs I, II
  W          W          W          H    +Q   Q
|----------|----------|----------|--------------|
|----------|----------|----------|--------------|
|----------|----------|----------|--------------|
|-4--------|-2--------|-4--------|-7----(7)--5--|
|-4--------|-2--------|-4--------|-7----(7)--5--|
|-2--------|-0--------|-2--------|-5----(5)--3--|


  F#5        E5         F#5        A5        G5
  W          W          W          H    +Q   Q
|----------|----------|----------|---------------||
|----------|----------|----------|---------------||
|----------|----------|----------|---------------||
|-4--------|-2--------|-4--------|-7----(7)--5---||
|-4--------|-2--------|-4--------|-7----(7)--5---||
|-2--------|-0--------|-2--------|-5----(5)--3---||


  Faster Q=150
  F#5              E5               F#5              N.C.(A)(G)
  Q  E E +Q   Q    Q  E E +Q   Q    Q  E E +Q   Q    Q  E E +Q   Q
|----------------|----------------|----------------|-----------------|
|----------------|----------------|----------------|-----------------|
|----------------|----------------|----------------|-----------------|
|----------------|----------------|----------------|-2---------------|
|----4-5-(5)--4--|----2-4-(4)--5--|----4-5-(5)--4--|----4-5-(5)------|
|-2--------------|-0--------------|-2--------------|-------------3---|


  F#5              E5               F#5              (A)    (G)
  Gtr I
  Q  E E +Q   Q    Q  E E +Q   Q    Q  E E +Q   Q    Q  E E +Q   Q
|----------------|----------------|----------------|------------------||
|----------------|----------------|----------------|------------------||
|----------------|----------------|----------------|------------------||
|----------------|----------------|----------------|-2-----------5\---||
|----4-5-(5)--4--|----2-4-(4)--5--|----4-5-(5)--4--|----4-5-(5)-------||
|-2--------------|-0--------------|-2--------------|------------------||
|
| Gtr II
| Q  E E +Q   Q    Q  E E +Q   Q    Q  E E +Q   Q    Q  E E +Q   Q
|----------------|----------------|----------------|------------------||
|----------------|----------------|----------------|-------------8----||
|----6-7-(7)--6--|----4-6-(6)--7--|----6-7-(7)--6--|-9--6-7-(7)-------||
|-4--------------|-2--------------|-4--------------|------------------||
|----------------|----------------|----------------|------------------||
|----------------|----------------|----------------|------------------||


   Verses 1, 2
    Faster Q=156
    $
    F#5                   G5F#E5A5  F#5                   G5F#E5A5
    Gtrs I, II
    W              +H     E E E E   W              +H     E E E E
||---------------|----------------|--------------|----------------|
||o--------------|----------------|--------------|----------------|
||---------------|----------------|--------------|----------------|
||--4------------|-(4)----------2-|-4------------|-(4)----------2-|
||o-4------------|-(4)----5-4-2-0-|-4------------|-(4)----5-4-2-0-|
||--2------------|-(2)----3-2-0---|-2------------|-(2)----3-2-0---|
|
|   Gtr III
|   Q  Q  Q  E E   +H     H         Q  Q  Q  E E   +H     H
||---------------|----------------|--------------|----------------|
||o--------------|----------------|--------------|----------------|
||--------0----0-|-(0)------------|-------0----0-|-(0)------------|
||-----4-----4---|----------------|----4-----4---|----------------|
||o--------------|----------------|--------------|----------------|
||---------------|----------------|--------------|----------------|


  F#5                   G5F#E5A5  E5         C5   G5F#E5A5
  W              +H     E E E E   W          H    E E E E
|--------------|----------------|----------|----------------||
|--------------|----------------|----------|---------------o||
|--------------|----------------|----------|-5--------------||
|-4------------|-(4)----------2-|-2--------|-5----------2---||
|-4------------|-(4)----5-4-2-0-|-2--------|-3----5-4-2-0--o||
|-2------------|-(2)----3-2-0---|-0--------|------3-2-0-----||
|
| Q  Q  Q  E E   +H     H         W          W
|--------------|----------------|----------|----------------||
|--------------|----------------|----------|---------------o||
|-------0----0-|-(0)------------|----------|----------------||
|----4-----4---|----------------|----------|----------------||
|--------------|----------------|----------|---------------o||
|--------------|----------------|----------|----------------||


 Chorus
  F#5        A5         B5         G5
  Gtr III
  W          W          W          W
  |          |          |          |
  o          o          o          o

  Gtrs I, II
  W          W          W          W
|----------|----------|----------|------|
|----------|----------|----------|------|
|----------|-2--------|-4--------|------|
|-4--------|-2--------|-4--------|-5----|
|-4--------|-0--------|-2--------|-5----|
|-2--------|----------|----------|-3----|


  F#5        A5         B5         G5
  W          W          W          W                 +W
  |          |          |          |                  |
  o          o          o          o                  /

                                   PM-------------------------------|
  W          W          W          E E E E E E E E    E E E E E E E E
|----------|----------|----------|-----------------|--------------------|
|----------|----------|----------|-----------------|--------------------|
|----------|-2--------|-4--------|-----------------|--------------------|
|-4--------|-2--------|-4--------|-----------------|--------------------|
|-4--------|-0--------|-2--------|-5-5-5-5-5-5-5-5-|--5-5-5-5-5-5-5-5---|
|-2--------|----------|----------|-3-3-3-3-3-3-3-3-|--3-3-3-3-3-3-3-3---|


  F#5              E5
  Gtr I
  Q  E E +Q   Q    Q  E E +Q   Q
|----------------|----------------|
|----------------|----------------|
|----------------|----------------|
|----------------|----------------|
|-4--4-5-(5)--4--|-2--2-4-(4)--5--|
|-2--------------|-0--------------|
|
| Gtr II
| Q  E E +Q   Q    Q  E E +Q   Q
|----------------|----------------|
|----------------|----------------|
|----6-7-(7)--6--|----4-6-(6)--7--|
|-4--------------|-2--------------|
|----------------|----------------|
|----------------|----------------|


                                              D.S.
    G5
    Gtrs I, II
    PM--------------------------------------------|
    E E   E E   E E   E E     E E   E E   E E   E E
|-------------------------|-------------------------||
|-------------------------|-------------------------||
|-------------------------|-------------------------||
|-------------------------|-------------------------||
|---5-5---5-5---5-5---5-5-|---5-5---5-5---5-5---5-5-||
|---3-3---3-3---3-3---3-3-|---3-3---3-3---3-3---3-3-||
|
| Gtr III
| a Q   a Q   a Q   a Q     a Q   a Q   a Q   a Q
|-------------------------|-------------------------||
|-------------------------|-------------------------||
|---0-----0-----0-----0---|---0-----0-----0-----0---||
|-4-----4-----4-----4-----|-4-----4-----4-----4-----||
|-------------------------|-------------------------||
|-------------------------|-------------------------||


   Interlude
      Slower Q=150
    F#5                     E5
    Gtrs I, II
      W                     W
||----------------------|---------------------|
||o---------------------|---------------------|
||----------------------|---------------------|
||----4-----------------|---2-----------------|
||o---4-----------------|---2-----------------|
||----2-----------------|---0-----------------|
|
|   Gtr III
|   a Q  a Q  a Q  a Q    a Q  a Q  a Q  a Q
||----------------------|---------------------|
||o---------------------|---------------------|
||----0----0----0----0--|---0----0----0----0--|
||--4----4----4----4----|-4----4----4----4----|
||o---------------------|---------------------|
||----------------------|---------------------|


    B5                    B5A5
    W                     E E   +Q     +H
|---------------------|----------------------------|
|---------------------|----------------------------|
|---5-----------------|---4S2---(2)----(2)---------|
|---5-----------------|---4S2---(2)----(2)---------|
|---3-----------------|---2p0---(0)----(0)---------|
|---------------------|----------------------------|
|
| a Q  a Q  a Q  a Q    a Q   a  Q   a  Q   a Q
|---------------------|----------------------------|
|---------------------|----------------------------|
|---0----0----0----0--|---0------0------0-----0----|
|-4----4----4----4----|-4-----4------4------4------|
|---------------------|----------------------------|
|---------------------|----------------------------|


  F5                      G5
    W                     W
|---------------------|---------------------|
|---------------------|---------------------|
|---------------------|---------------------|
|---3-----------------|---5-----------------|
|---3-----------------|---5-----------------|
|---1-----------------|---3-----------------|
|
| a Q  a Q  a Q  a Q    a Q  a Q  a Q  a Q
|---------------------|---------------------|
|---------------------|---------------------|
|---0----0----0----0--|---0----0----0----0--|
|-4----4----4----4----|-4----4----4----4----|
|---------------------|---------------------|
|---------------------|---------------------|


    F#5                               G5F#5 E5A5
    W                     +H          E E   E E     3x
|---------------------|-----------------------------||
|---------------------|----------------------------o||
|---------------------|-----------------------------||
|---4-----------------|---(4)-----------------------||
|---4-----------------|---(4)---------5-4---2-7----o||
|---2-----------------|---(2)---------3-2---0-5-----||
|
| a Q  a Q  a Q  a Q    a  Q   a Q  a Q   a Q       3x
|---------------------|-----------------------------||
|---------------------|----------------------------o||
|---0----0----0----0--|----0-----0----0-----0-------||
|-4----4----4----4----|-4------4----4-----4---------||
|---------------------|----------------------------o||
|---------------------|-----------------------------||


 Chorus
  Faster Q=156
  F#5        A5         B5         G5
  Gtr III
  W          W          W          W
  |          |          |          |
  o          o          o          o

  Gtrs I, II
  W          W          W          W
|----------|----------|----------|------|
|----------|----------|----------|------|
|----------|-2--------|-4--------|------|
|-4--------|-2--------|-4--------|-5----|
|-4--------|-0--------|-2--------|-5----|
|-2--------|----------|----------|-3----|


  F#5        A5         B5         G5
  W          W          W          W                 +W
  |          |          |          |                  |
  o          o          o          o                  /

                                   PM-------------------------------|
  W          W          W          E E E E E E E E    E E E E E E E E
|----------|----------|----------|-----------------|--------------------|
|----------|----------|----------|-----------------|--------------------|
|----------|-2--------|-4--------|-----------------|--------------------|
|-4--------|-2--------|-4--------|-----------------|--------------------|
|-4--------|-0--------|-2--------|-5-5-5-5-5-5-5-5-|--5-5-5-5-5-5-5-5---|
|-2--------|----------|----------|-3-3-3-3-3-3-3-3-|--3-3-3-3-3-3-3-3---|


  F#5              E5               G5
  Gtr I
                                    PM------------------------------|
  Q  E E +Q   Q    Q  E E +Q   Q    E E E E E E E E   E E E E E E E E
|----------------|----------------|-----------------|------------------|
|----------------|----------------|-----------------|------------------|
|----------------|----------------|-----------------|------------------|
|----------------|----------------|-----------------|------------------|
|-4--4-5-(5)--4--|-2--2-4-(4)--5--|-5-5-5-5-5-5-5-5-|-5-5-5-5-5-5-5-5--|
|-2--------------|-0--------------|-3-3-3-3-3-3-3-3-|-3-3-3-3-3-3-3-3--|
|
| Gtr II
|                                   PM------------------------------|
| Q  E E +Q   Q    Q  E E +Q   Q    E E E E E E E E   E E E E E E E E
|----------------|----------------|-----------------|------------------|
|----------------|----------------|-----------------|------------------|
|----6-7-(7)--6--|----4-6-(6)--7--|-----------------|------------------|
|-4--------------|-2--------------|-----------------|------------------|
|----------------|----------------|-5-5-5-5-5-5-5-5-|-5-5-5-5-5-5-5-5--|
|----------------|----------------|-3-3-3-3-3-3-3-3-|-3-3-3-3-3-3-3-3--|


  F#5              E5               G5
                                    PM------------------------------|
  Q  E E +Q   Q    Q  E E +Q   Q    E E E E E E E E   E E E E E E E E
|----------------|----------------|-----------------|------------------||
|----------------|----------------|-----------------|------------------||
|----------------|----------------|-----------------|------------------||
|----------------|----------------|-----------------|------------------||
|-4--4-5-(5)--4--|-2--2-4-(4)--5--|-5-5-5-5-5-5-5-5-|-5-5-5-5-5-5-5-5--||
|-2--------------|-0--------------|-3-3-3-3-3-3-3-3-|-3-3-3-3-3-3-3-3--||
|
|                                   PM------------------------------|
| Q  E E +Q   Q    Q  E E +Q   Q    E E E E E E E E   E E E E E E E E
|----------------|----------------|-----------------|------------------||
|----------------|----------------|-----------------|------------------||
|----6-7-(7)--6--|----4-6-(6)--7--|-----------------|------------------||
|-4--------------|-2--------------|-----------------|------------------||
|----------------|----------------|-5-5-5-5-5-5-5-5-|-5-5-5-5-5-5-5-5--||
|----------------|----------------|-3-3-3-3-3-3-3-3-|-3-3-3-3-3-3-3-3--||


  Slower Q=144    Q=132
  F#G5 F#G5 F#A5
  Gtrs I, II
  E Q  E Q  E E   +W           +W           +W
|---------------|------------|------------|--------*|
|---------------|------------|------------|--------*|
|---------------|------------|------------|--------*|
|-4-5--4-5--4-7-|-(7)--------|-(7)--------|-(7)----*|
|-4-5--4-5--4-7-|-(7)--------|-(7)--------|-(7)----*|
|-2-3--2-3--2-5-|-(5)--------|-(5)--------|-(5)----*|



Duration Legend
---------------
W - whole; H - half; Q - quarter; E - 8th; S - 16th; T - 32nd; X - 64th; a - acciaccatura
+ - note tied to previous; . - note dotted; .. - note double dotted
Uncapitalized letters represent notes that are staccato (1/2 duration)
Irregular groupings are notated above the duration line
Duration letters will always appear directly above the note/fret number it represents the
duration for.  Duration letters with no fret number below them represent rests.  Multi-
bar rests are notated in the form Wxn, where n is the number of bars to rest for.  Low
melody durations appear below the staff

Tablature Legend
----------------
 h   - hammer-on
 p   - pull-off
 b   - bend
 pb  - pre-bend
 r   - bend release (if no number after the r, then release immediately)
 /\  - slide into or out of (from/to "nowhere")
 s   - legato slide
 S   - shift slide
 - natural harmonic
[n]  - artificial harmonic
n(n) - tapped harmonic
 ~   - vibrato
 tr  - trill
 T   - tap
 TP  - trem. picking
 PM  - palm muting
\n/  - tremolo bar dip; n = amount to dip
 \n  - tremolo bar down
 n/  - tremolo bar up
/n\  - tremolo bar inverted dip
 =   - hold bend; also acts as connecting device for hammers/pulls
 <> - volume swell (louder/softer)
 x   - on rhythm slash represents muted slash
 o   - on rhythm slash represents single note slash

Misc Legend
-----------
 |  - bar
||  - double bar
||o - repeat start
o|| - repeat end
*|  - double bar (ending)
 :  - bar (freetime)
 $  - Segno
 &  - Coda
Tempo markers -  = BPM(8/16=s8/s16), where s8 = swing 8ths, s16 = swing 16ths

Добавлено: 30.05.2012
Другие материалы по этой песне:

Страница создана 07.03.2012
http://primanota.ru/kreator/stronger-than-before-chords.htm
Привет, Гость.
Предлагаем пройти революционный курс по гитаре.
Подарок от PrimaNota.Ru, забирай!