PrimaNota.ru - самый крупный в мире бесплатный архив песенных текстов, аккордов, табулатур и нот


Kreator - The Patriarch - таба, видео

Регистрация Запомнить меня
Войти через:  Facebook Google Twitter Vk Yandex Mail.ru

Kreator - The Patriarch - таба, видео

Печатать
Просмотров: 215
Авторы музыки: Miland "Mille" Petrozza

The Patriarch

Performed By: Kreator
From the Album: "Violent Revolution"
Music Written By: Mille Petrozza

I decided to have a go at this short, simple, yet amazing
instrumental/lead-in track from "Violent Revolution".
I have tabbed out the complete order of the song,
and have arranged this for two guitars. 
The timing is off in a few places, but it should 
be quite easy to play as long as you are 
familiar with the song.


D-Tuning (D G C F A d) Low to High


 Guitar 1
|-------------------------------------------------|
|-------------------------------------------------|
|------------------------------0--4--2--0h2p0-----|
|--------4h5--4-----4h5-----2------------------0--|
|-----2----------5-------3------------------------|
|--0----------------------------------------------|


 Guitar 2 (Let chords ring)
|-------------------------------------------------|
|-------------------------------------------------|
|------------------------5------------------------|
|--2---------------------5------------------------|
|--2---------------------3------------------------|
|--0----------------------------------------------|



 Guitar 1
|------------------------------------------------|
|------------------------------------------------|
|------------------------------0--------0--------|
|--------4h5--4-----4h5-----2--------0-----------|
|-----2----------5-------3--------2--------------|
|--0---------------------------------------3--2--|
                                           .  .

Guitar 2 (Let chords ring)
|------------------------------------------------|
|------------------------------------------------|
|------------------------5--------4--------------|
|--2---------------------5--------4--------------|
|--2---------------------3--------2--------------|
|--0---------------------------------------3--2--|
                                           .  .


 Guitar 1
|-------------------------------------------------|
|-------------------------------------------------|
|------------------------------0--4--2--0h2p0-----|
|--------4h5--4-----4h5-----2------------------0--|
|-----2----------5-------3------------------------|
|--0----------------------------------------------|


 Guitar 2 (Let chords ring)
|-------------------------------------------------|
|-------------------------------------------------|
|------------------------5------------------------|
|--2---------------------5------------------------|
|--2---------------------3------------------------|
|--0----------------------------------------------|



 Guitar 1
|------------------------------------------------|
|------------------------------------------------|
|------------------------------0--------0--------|
|--------4h5--4-----4h5-----2--------4-----3--0--|
|-----2----------5-------3--------5--------------|
|--0---------------------------------------------|


 Guitar 2 (Let chords ring)
|------------------------------------------------|
|------------------------------------------------|
|------------------------5--------7-------10--7--|
|--2---------------------5--------7--------------|
|--2---------------------3--------5--------------|
|--0---------------------------------------------|


(Note: LIGHT palm muting from here on in)


 Guitar 1
|--------0--3--2--0h1p0-----------------------------|
|------------------------3--0-----------------------|
|------------------------------------------------0--|
|-----2---------------------------------------2-----|
|--3---------------------------------2--3--5--------|
|------------------------------3--5-----------------|
                               .  .  .  .  .  .  .

 Guitar 2
|---------------------------------------------------|
|---------------------------------------------------|
|--------4--2--0--2p0-------------------------------|
|-----2----------------4--2----------------------0--|
|--3------------------------------------0--2--3-----|
|------------------------------0--2--3--------------|
                               .  .  .  .  .  .  .


 Guitar 1
|--------0--3--2--0h1p0-----------------------------|
|------------------------3--0-----------------------|
|------------------------------------------------0--|
|-----2---------------------------------------2-----|
|--3---------------------------------2--3--5--------|
|------------------------------3--5-----------------|
                               .  .  .  .  .  .  .

Guitar 2
|---------------------------------------------------|
|---------------------------------------------------|
|--------4--2--0--2p0-------------------------------|
|-----2----------------4--2-------------------------|
|--3------------------------------------0--2--3--2--|
|------------------------------0--2--3--------------|
                               .  .  .  .  .  .  .


 Guitar 1
|--------0--3--2--0h1p0-----------------------------|
|------------------------3--0-----------------------|
|------------------------------------------------0--|
|-----2---------------------------------------2-----|
|--3---------------------------------2--3--5--------|
|------------------------------3--5-----------------|
                               .  .  .  .  .  .  .

Guitar 2
|---------------------------------------------------|
|---------------------------------------------------|
|--------4--2--0--2p0-------------------------------|
|-----2----------------4--2----------------------0--|
|--3------------------------------------0--2--3-----|
|------------------------------0--2--3--------------|
                               .  .  .  .  .  .  .



 Guitar 1
|--------0--3--2--0h1p0---------------------------|
|------------------------3--0---------------------|
|------------------------------0--4--2--0h2p0-----|
|-----2----------------------------------------4--|
|--3----------------------------------------------|
|-------------------------------------------------|


Guitar 2
|-------------------------------------------------|
|-------------------------------------------------|
|--------4--2--0--2p0-----------4--2--0--2p0------|
|-----2----------------4-----4----------------4---|
|--3----------------------2-----------------------|
|-------------------------------------------------|
                               


 Guitar 1
|-------------------------------------------------|
|-------------------------------------------------|
|------------------------------0--4--2--0h2p0-----|
|--------4h5--4-----4h5-----2------------------0--|
|-----2----------5-------3------------------------|
|--0----------------------------------------------|


 Guitar 2
|-----------7--5----------5--7\\\\----------------|
|--------5--------8h10p8------------5--3~~--------|
|-----4-------------------------------------------|
|-------------------------------------------------|
|-------------------------------------------------|
|-------------------------------------------------|



 Guitar 1
|------------------------------------------------|
|------------------------------------------------|
|------------------------------0--------0--------|
|--------4h5--4-----4h5-----2--------0-----------|
|-----2----------5-------3--------2--------------|
|--0---------------------------------------3--2--|
                                           .  .

 Guitar 2
|-----------7--5----------5--7\\\\---------------|
|--------5--------8h10p8-------------------------|
|-----4------------------------------------------|
|------------------------------------------------|
|------------------------------------------------|
|------------------------------------------------|



Guitar 1
|-------------------------------------------------|
|-------------------------------------------------|
|------------------------------0--4--2--0h2p0-----|
|--------4h5--4-----4h5-----2------------------0--|
|-----2----------5-------3------------------------|
|--0----------------------------------------------|


 Guitar 2
|-----------7--5----------5--7\\\\----------------|
|--------5--------8h10p8------------5--3~~--------|
|-----4-------------------------------------------|
|-------------------------------------------------|
|-------------------------------------------------|
|-------------------------------------------------|



 Guitar 1
|------------------------------------------------|
|------------------------------------------------|
|------------------------------0--------0--------|
|--------4h5--4-----4h5-----2--------4-----3--0--|
|-----2----------5-------3--------5--------------|
|--0---------------------------------------------|


Guitar 2
|-----------7--5----------5--7\\\\---------------|
|--------5--------8h10p8-------------------------|
|-----4------------------------------------------|
|------------------------------------------------|
|------------------------------------------------|
|------------------------------------------------|


(Right into "Violent Revolution")



END
Добавлено: 11.05.2012
Другие материалы по этой песне:

Страница создана 14.03.2012
http://primanota.ru/kreator/the-patriarch-chords.htm
Привет, Гость.
Предлагаем пройти революционный курс по гитаре.
Подарок от PrimaNota.Ru, забирай!