PrimaNota.ru - самый крупный в мире бесплатный архив песенных текстов, аккордов, табулатур и нот


Kreator - Europe After The Rain - текст песни, таба, видео

Регистрация Запомнить меня
Войти через:  Facebook Google Twitter Vk Yandex Mail.ru

Kreator - Europe After The Rain - текст песни, таба, видео

Печатать
Просмотров: 239
Уроки эстрадного вокала в Санкт-Петербурге
Авторы музыки: Mille Petrozza, Roberto Fioretti, Frank Gosdzik, Jürgen "Ventor" Reil
Авторы текста: Mille Petrozza
                     Europe After The Rain


+-------------------------------------------------------------------+
|                            SONG INFO                              |
+-------------------------------------------------------------------¦
| Artist:   | Kreator                                               |
| Song:     | EUROPE AFTER THE RAIN                                 |
| Album:    | Renewal                                               |
| Length:   | 3:18                                                  |
| Website:  | www.kreator-terrorzone.de                             |
+-------------------------------------------------------------------¦
|                         Transcripted by                           |
+-------------------------------------------------------------------¦
| Artist:   | Ricardo Magno                                         |
| E-mail:   | ricmagno@msn.com                                      |
| Uin:      | 8879229                                               |
+-------------------------------------------------------------------¦
|                         Other comments                            |
+-------------------------------------------------------------------¦
| No special comments about this song                               |
|                                                                   |
|                                                                   |
+-------------------------------------------------------------------+







Riff 01



(Intro)
                                  3x
E||-------------------------------||---------------------------||
B||-------------------------------||---------------------------||
G||------------------------------*||---------------------------||
D||--4--4-4-4-4-4--4-4-4-4-4--2--*||---------------------------||
A||--2--2-2-2-2-2--2-2-2-2-2--0---||--5--5-7--7-4--4-2--2-5----||
E||-------------------------------||--3--3-5--5-2--2-0--0-3----||


Riff 02



Indecisive ...

Perversion ...

                                                              3x
E||----------------------------------|------------------------||
B||----------------------------------|------------------------||
G||----------------------------------|-----------------------*||
D||----------------------------------|-----------------------*||
A||----------------------------------|--7----5----7----5--7---||
E||--0-0-0-0-0-0-0-0-2-2-2-2-2-2-2-2-|--5----3----2----3--5---||



Riff 03



Monotony ...

                              2x
E||---------------------------||
B||---------------------------||
G||--------------------------*||
D||--------------------------*||
A||--5--5-7--7-4--4-2--2-5----||
E||--3--3-5--5-2--2-0--0-3----||


Riff 02



(Solo)

Acceptance ..

                                                              3x
E||----------------------------------|------------------------||
B||----------------------------------|------------------------||
G||----------------------------------|-----------------------*||
D||----------------------------------|-----------------------*||
A||----------------------------------|--7----5----7----5--7---||
E||--0-0-0-0-0-0-0-0-2-2-2-2-2-2-2-2-|--5----3----2----3--5---||


Riff 03



Monotony ...

                              2x
E||---------------------------||
B||---------------------------||
G||--------------------------*||
D||--------------------------*||
A||--5--5-7--7-4--4-2--2-5----||
E||--3--3-5--5-2--2-0--0-3----||


Riff 04


                                  3x
E||-------------------------------||----------------------||
B||-------------------------------||----------------------||
G||------------------------------*||---------------------*||
D||--4--4-4-4-4-4--4-4-4-4-4--2--*||------------5--------*||
A||--2--2-2-2-2-2--2-2-2-2-2--0---||--3----5----3---------||
E||-------------------------------||--1----3--------------||


                               3x
--------------------------------||-----------------------||
--------------------------------||-----------------------||
*------------------------------*||-----------------------||
*--4--4-4-4-4-4--4-4-4-4-4--2--*||--4--2--4--5--2--------||
---2--2-2-2-2-2--2-2-2-2-2--0---||--2--0--2/-3--0--------||
--------------------------------||-----------------------||


Riff 05



Can't ...


E||----------------------|----------------------||
B||----------------------|----------------------||
G||--4----5----4----2----|--4----7----5----4----||
D||----------------------|----------------------||
A||--2----3----2----0----|--2----5----3----2----||
E||----------------------|----------------------||



Riff 04


                                  3x
E||-------------------------------||----------------------||
B||-------------------------------||----------------------||
G||------------------------------*||---------------------*||
D||--4--4-4-4-4-4--4-4-4-4-4--2--*||------------5--------*||
A||--2--2-2-2-2-2--2-2-2-2-2--0---||--3----5----3---------||
E||-------------------------------||--1----3--------------||

Tomorrow I'll be gone
                                3x
--------------------------------||-----------------------||
--------------------------------||-----------------------||
*------------------------------*||-----------------------||
*--4--4-4-4-4-4--4-4-4-4-4--2--*||--4--2--4--5--2--------||
---2--2-2-2-2-2--2-2-2-2-2--0---||--2--0--2/-3--0--------||
--------------------------------||-----------------------||


Riff 05



Forcing them ...


E||----------------------|----------------------||
B||----------------------|----------------------||
G||--4----5----4----2----|--4----7----5----4----||
D||----------------------|----------------------||
A||--2----3----2----0----|--2----5----3----2----||
E||----------------------|----------------------||


Riff 04


                                  3x
E||-------------------------------||----------------------||
B||-------------------------------||----------------------||
G||------------------------------*||---------------------*||
D||--4--4-4-4-4-4--4-4-4-4-4--2--*||------------5--------*||
A||--2--2-2-2-2-2--2-2-2-2-2--0---||--3----5----3---------||
E||-------------------------------||--1----3--------------||

Tomorrow I'll be gone
                                3x
--------------------------------||-----------------------||
--------------------------------||-----------------------||
*------------------------------*||-----------------------||
*--4--4-4-4-4-4--4-4-4-4-4--2--*||--4--2--4--5--2--------||
---2--2-2-2-2-2--2-2-2-2-2--0---||--2--0--2/-3--0--------||
--------------------------------||-----------------------||


Riff 05



Tomorrow I'll be gone


E||----------------------||
B||----------------------||
G||--4----7----5----4----||
D||----------------------||
A||--2----5----3----2----||
E||----------------------||


Riff 01



                                   Monotony 
                                  3x
E||-------------------------------||---------------------------||
B||-------------------------------||---------------------------||
G||------------------------------*||---------------------------||
D||--4--4-4-4-4-4--4-4-4-4-4--2--*||---------------------------||
A||--2--2-2-2-2-2--2-2-2-2-2--0---||--5--5-7--7-4--4-2--2-5----||
E||-------------------------------||--3--3-5--5-2--2-0--0-3----||


Riff 02



(Solo)

A complex ...

                                                              3x
E||----------------------------------|------------------------||
B||----------------------------------|------------------------||
G||----------------------------------|-----------------------*||
D||----------------------------------|-----------------------*||
A||----------------------------------|--7----5----7----5--7---||
E||--0-0-0-0-0-0-0-0-2-2-2-2-2-2-2-2-|--5----3----2----3--5---||


Riff 03



Monotony ...

                              2x
E||---------------------------||
B||---------------------------||
G||--------------------------*||
D||--------------------------*||
A||--5--5-7--7-4--4-2--2-5----||
E||--3--3-5--5-2--2-0--0-3----||


Riff 01


                                  3x
E||-------------------------------||
B||-------------------------------||
G||------------------------------*||
D||--4--4-4-4-4-4--4-4-4-4-4--2--*||
A||--2--2-2-2-2-2--2-2-2-2-2--0---||
E||-------------------------------||



-|- EnD -|-
     
Добавлено: 01.11.2013
Другие материалы по этой песне:

Страница создана 21.04.2012
http://primanota.ru/kreator/europe-after-the-rain-chords.htm
Привет, Гость.
Предлагаем пройти революционный курс по гитаре.
Подарок от PrimaNota.Ru, забирай!