PrimaNota.ru - самый крупный в мире бесплатный архив песенных текстов, аккордов, табулатур и нот


Kreator - Hordes Of Chaos - текст песни, таба, видео

Регистрация Запомнить меня
Войти через:  Facebook Google Twitter Vk Yandex Mail.ru

Kreator - Hordes Of Chaos - текст песни, таба, видео

Печатать
Просмотров: 257
Sami Yli-Sirniö: this is the lead part. rythym on bottom


Intro
         PM       PM        PM         PM PM PM      PM PM     PM PM     
     E   E  E  E  E  E  E   E      E   S  S  E   E   S  S  E   S  S  E   
E||----------------------------|----------------------------------------|
B||----------------------------|----------------------------------------|
G||--9---------------9---------|--11------------12--------14--------11--|
D||---------7--9--------9------|------12-12-12------12-12-----12-12-----|
A||-----10--------7--------10--|----------------------------------------|
E||----------------------------|----------------------------------------|


      PM       PM        PM         PM PM PM      PM PM     PM PM     
  E   E  E  E  E  E  E   E      E   S  S  E   E   S  S  E   S  S  E   
----------------------------|----------------------------------------|
----------------------------|----------------------------------------|
--9---------------9---------|--11------------12--------11--------11--|
---------7--9--------9------|------12-12-12------12-12-----12-12-----|
-----10--------7--------10--|----------------------------------------|
----------------------------|----------------------------------------|


      PM       PM        PM         PM PM PM      PM PM     PM PM     
  E   E  E  E  E  E  E   E      E   S  S  E   E   S  S  E   S  S  E   
----------------------------|----------------------------------------|
----------------------------|----------------------------------------|
--9---------------9---------|--11------------12--------14--------11--|
---------7--9--------9------|------12-12-12------12-12-----12-12-----|
-----10--------7--------10--|----------------------------------------|
----------------------------|----------------------------------------|


      PM       PM        PM         PM PM PM      PM PM     PM PM     
  E   E  E  E  E  E  E   E      E   S  S  E   E   S  S  E   S  S  E   
----------------------------|----------------------------------------|
----------------------------|----------------------------------------|
--9---------------9---------|--11------------12--------11--------11--|
---------7--9--------9------|------12-12-12------12-12-----12-12-----|
-----10--------7--------10--|----------------------------------------|
----------------------------|----------------------------------------|


   E   E   E   E   E   E   E   E      E   S  S  E   E   S  S  E   S  S  E   
--12------------------12----------|--14------------15--------17--------14--|
--------------12----------12------|------15-15-15------15-15-----15-15-----|
------12--14------------------12--|----------------------------------------|
------------------14--------------|----------------------------------------|
----------------------------------|----------------------------------------|
----------------------------------|----------------------------------------|


   E   E   E   E   E   E   E   E      E   S  S  E   E   S  S  E   S  S  E   
--12------------------12----------|--14------------15--------14--------14--|
--------------12----------12------|------15-15-15------15-15-----15-15-----|
------12--14------------------12--|----------------------------------------|
------------------14--------------|----------------------------------------|
----------------------------------|----------------------------------------|
----------------------------------|----------------------------------------|


   E   E   E   E   E   E   E   E      E   S  S  E   E   S  S  E   S  S  E   
--12------------------12----------|--14------------15--------17--------14--|
--------------12----------12------|------15-15-15------15-15-----15-15-----|
------12--14------------------12--|----------------------------------------|
------------------14--------------|----------------------------------------|
----------------------------------|----------------------------------------|
----------------------------------|----------------------------------------|


   E   E   E   E   E   E   E   E      E   S  S  E   E   S  S  E   S  S  E   
--12------------------12----------|--14------------15--------14--------14--|
--------------12----------12------|------15-15-15------15-15-----15-15-----|
------12--14------------------12--|----------------------------------------|
------------------14--------------|----------------------------------------|
----------------------------------|----------------------------------------|
----------------------------------|----------------------------------------|


                                                          |---3---|          
   E   E   E   E   E   E   E   E      E   E   E   E   E   S   S   S  E   E   
--12------------------------------|-----------------------------------------|
--------------12--15----------12--|--13----------10--12--10h-12p-10---------|
------13--14----------13--14------|------11--12---------------------12--11--|
----------------------------------|-----------------------------------------|
----------------------------------|-----------------------------------------|
----------------------------------|-----------------------------------------|


   E   E   E   E   E   E   E   E      E   E   E   E   E   E   E   E   
--12------------------------------|--------------------------10------|
--------------12--15----------12--|--13----------10--12--10------10--|
------13--14----------13--14------|------11--12----------------------|
----------------------------------|----------------------------------|
----------------------------------|----------------------------------|
----------------------------------|----------------------------------|


                                                          |---3---|          
   E   E   E   E   E   E   E   E      E   E   E   E   E   S   S   S  E   E   
--12------------------------------|-----------------------------------------|
--------------12--15----------12--|--13----------10--12--10h-12p-10---------|
------13--14----------13--14------|------11--12---------------------12--11--|
----------------------------------|-----------------------------------------|
----------------------------------|-----------------------------------------|
----------------------------------|-----------------------------------------|


   E   E   E   E   E   E   E   E      E   E   E   E   E   E   E   E   
--12------------------------------|--------------------------10------|
--------------12--15----------12--|--13----------10--12--10------10--|
------13--14----------13--14------|------11--12----------------------|
----------------------------------|----------------------------------|
----------------------------------|----------------------------------|
----------------------------------|----------------------------------|

Riff

   Q     H.                                                            
--12\-----------------|---------------|---------------|---------------|
----------------------|---------------|---------------|---------------|
----------------------|---------------|---------------|---------------|
----------------------|---------------|---------------|---------------|
----------------------|---------------|---------------|---------------|
----------------------|---------------|---------------|---------------|


                                            Pick Slide                    
  PM PM PM                                  TP         TP    TP    TP     
  S  S  E  H.                               Q          Q     Q     Q      
------------------------|---------------|--12s--------10s----9s----7s----|
------------------------|---------------|--------------------------------|
------------------------|---------------|--------------------------------|
------------------------|---------------|--------------------------------|
--------2---------------|---------------|--------------------------------|
--0--0--0---------------|---------------|--------------------------------|


  TP    TP                 PM PM PM    PM    PM    PM  
  Q     Q     H            S  S  E  E  E  E  E  E  E   
--5s----3---------------|-----------------------------|
------------------------|-----------------------------|
------------------------|-----------------------------|
------------------------|-----------------------------|
------------------------|-----------7-----7-----7-----|
-------------12\--------|--0--0--0-----0-----0-----0--|


     PM    PM                   PM    PM    PM    PM  
  E  E  E  E  E  E  E  E     E  E  E  E  E  E  E  E   
--------------------------|--------------------------|
--------------------------|--------------------------|
--------------------------|--------------------------|
-----------------------9--|--8-----------------------|
--7-----7-----7--6--7-----|--------7-----7-----7-----|
-----0-----0--------------|-----0-----0-----0-----0--|


     PM    PM                PM PM PM    PM    PM    PM  
  E  E  E  E  E  E  E  E     S  S  E  E  E  E  E  E  E   
--------------------------|-----------------------------|
--------------------------|-----------------------------|
--------------------------|-----------------------------|
--------------------------|-----------------------------|
--7-----7-----7--6--------|-----------7-----7-----7-----|
-----0-----0--------9--7--|--0--0--0-----0-----0-----0--|


     PM    PM                   PM    PM    PM    PM  
  E  E  E  E  E  E  E  E     E  E  E  E  E  E  E  E   
--------------------------|--------------------------|
--------------------------|--------------------------|
--------------------------|--------------------------|
-----------------------9--|--8-----------------------|
--7-----7-----7--6--7-----|--------7-----7-----7-----|
-----0-----0--------------|-----0-----0-----0-----0--|

                          Verse


                                PM PM PM PM    PM PM PM PM  
  E  E  E  E  E  E  E  E     E  S  S  E  E  E  S  S  E  E   
--------------------------|--------------------------------|
--------------------------|--------------------------------|
--------------------------|--------------------------------|
--------------6-----------|--4-----------------------------|
--7--6--7--9-----9--7--6--|--2--2--2--2--2--5--2--2--2--2--|
--------------------------|--------------------------------|


     PM PM PM PM PM                PM PM PM PM    PM PM PM PM  
  E  S  S  E  E  E  E  E  E     E  S  S  E  E  E  S  S  E  E   
-----------------------------|--------------------------------|
-----------------------------|--------------------------------|
-----------------------------|--------------------------------|
--------------------------3--|--4-----------------------------|
--3--2--2--2--2--2--5--L--1--|--2--2--2--2--2--5--2--2--2--2--|
--------------------3--L-----|--------------------------------|


                            PM PM PM PM    PM PM PM PM  
  Q    Q    Q    Q       E  S  S  E  E  E  S  S  E  E   
----------------------|--------------------------------|
----------------------|--------------------------------|
----------------------|--------------------------------|
-------4---------3----|--4-----------------------------|
--5----2----4----1----|--2--2--2--2--2--5--2--2--2--2--|
--3---------2---------|--------------------------------|


     PM PM PM PM PM                PM PM PM PM    PM PM PM PM  
  E  S  S  E  E  E  E  E  E     E  S  S  E  E  E  S  S  E  E   
-----------------------------|--------------------------------|
-----------------------------|--------------------------------|
-----------------------------|--------------------------------|
--------------------------3--|--4-----------------------------|
--3--2--2--2--2--2--5--L--1--|--2--2--2--2--2--5--2--2--2--2--|
--------------------3--L-----|--------------------------------|


  Q    Q    Q    Q       H.           E  E     H.           E  E   
----------------------|---------------------|---------------------|
----------------------|---------------------|---------------------|
----------------------|--8------------9--6--|--8------------9--6--|
-------4---------3----|---------------------|---------------------|
--5----2----4----1----|---------------------|---------------------|
--3---------2---------|---------------------|---------------------|


   H.            E   E      H        E   Q     E   
------------------------|-------------------------|
------------------------|---------------12----14--|
--12------------13------|--15--------L------------|
--------------------14--|-------------------------|
------------------------|-------------------------|
------------------------|-------------------------|


         PM PM PM PM PM PM PM    PM       PM                    
   Q     S  S  S  S  S  S  E  E  E     E  E  E  E  E  E  E  E   
------------------------------------|--------------------------|
--12\-------------------------------|--------------------------|
------------------------------------|--------------------------|
------------------------------------|--------------------------|
------------------------------5-----|--3-----2--3--0--2--3--5--|
---------2--2--2--2--2--2--2-----2--|-----2--------------------|


        PM PM PM PM PM PM PM    PM       PM                    
  Q     S  S  S  S  S  S  E  E  E     E  E  E  E  E  E  E  E   
-----------------------------------|--------------------------|
-----------------------------------|--------------------------|
-----------------------------------|--------------------------|
-----------------------------------|--------------------------|
--7\-------------------------5-----|--3-----2--3--0--2--3--5--|
--------2--2--2--2--2--2--2-----2--|-----2--------------------|


  PM PM PM PM PM PM PM PM PM PM PM PM PM PM PM PM  
  S  S  S  S  S  S  S  S  S  S  S  S  S  S  S  S   
--------------------------------------------------|
--------------------------------------------------|
--------------------------------------------------|
--------------------------------------------------|
--------------------------------------------------|
--3--3--3--3--3--3--3--3--3--3--3--3--5--5--3--3--|


  PM PM PM PM PM PM PM PM PM PM PM PM        
  S  S  S  S  S  S  S  S  S  S  S  S  E  E   
--------------------------------------------|
--------------------------------------------|
--------------------------------------------|
--------------------------------------------|
--------------------------------------------|
--2--2--2--2--2--2--2--2--2--2--2--2--3--2--|


  PM PM PM PM PM PM PM PM PM PM PM PM PM PM PM PM  
  S  S  S  S  S  S  S  S  S  S  S  S  S  S  S  S   
--------------------------------------------------|
--------------------------------------------------|
--------------------------------------------------|
--------------------------------------------------|
--8--8--8--8--8--8--7--7--7--7--7--7--5--5--5--5--|
--------------------------------------------------|


  PM PM PM PM PM PM PM PM PM PM PM PM PM PM PM PM  
  S  S  S  S  S  S  S  S  S  S  S  S  S  S  S  S   
--------------------------------------------------|
--------------------------------------------------|
--------------------------------------------------|
--------------------------------------------------|
--------------------------------------5--5--5--5--|
--8--8--8--8--8--8--7--7--7--7--7--7--------------|


        PM PM PM PM PM PM PM    PM       PM                    
  Q     S  S  S  S  S  S  E  E  E     E  E  E  E  E  E  E  E   
-----------------------------------|--------------------------|
-----------------------------------|--------------------------|
-----------------------------------|--------------------------|
-----------------------------------|--------------------------|
--7\-------------------------5-----|--3-----2--3--0--2--3--5--|
--------2--2--2--2--2--2--2-----2--|-----2--------------------|


        PM PM PM PM PM PM PM    PM       PM                    
  Q     S  S  S  S  S  S  E  E  E     E  E  E  E  E  E  E  E   
-----------------------------------|--------------------------|
-----------------------------------|--------------------------|
-----------------------------------|--------------------------|
-----------------------------------|--------------------------|
--7\-------------------------5-----|--3-----2--3--0--2--3--5--|
--------2--2--2--2--2--2--2-----2--|-----2--------------------|


  PM PM PM PM PM PM PM PM PM PM PM PM PM PM PM PM  
  S  S  S  S  S  S  S  S  S  S  S  S  S  S  S  S   
--------------------------------------------------|
--------------------------------------------------|
--------------------------------------------------|
--------------------------------------------------|
--------------------------------------------------|
--3--3--3--3--3--3--3--3--3--3--3--3--5--5--3--3--|


  PM PM PM PM PM PM PM PM PM PM PM PM        
  S  S  S  S  S  S  S  S  S  S  S  S  E  E   
--------------------------------------------|
--------------------------------------------|
--------------------------------------------|
--------------------------------------------|
--------------------------------------------|
--2--2--2--2--2--2--2--2--2--2--2--2--3--2--|


  PM PM PM PM PM PM PM PM PM PM PM PM PM PM PM PM  
  S  S  S  S  S  S  S  S  S  S  S  S  S  S  S  S   
--------------------------------------------------|
--------------------------------------------------|
--------------------------------------------------|
--------------------------------------------------|
--8--8--8--8--8--8--7--7--7--7--7--7--5--5--5--5--|
--------------------------------------------------|

                                    Chorus

  PM PM PM PM PM PM PM PM                 PM PM    PM PM    PM PM        
  S  S  S  S  S  S  S  S  Q    Q       E  S  S  E  S  S  E  S  S  E  E   
------------------------------------|-----------------------------------|
------------------------------------|-----------------------------------|
------------------------------------|-----------------------------------|
--5--5--5--5--5--5--5--5-------7----|-----------------------------7-----|
--------------------------8----5----|--2--------2--------2--------5--8--|
--------------------------6---------|--0--0--0--0--0--0--0--0--0-----6--|


     PM PM    PM PM    PM PM    PM PM       PM PM    PM PM    PM PM        
  E  S  S  E  S  S  E  S  S  E  S  S     E  S  S  E  S  S  E  S  S  E  E   
--------------------------------------|-----------------------------------|
--------------------------------------|-----------------------------------|
--------------------------------------|-----------------------------------|
--------------------------------------|-----------------------------------|
--2--------2--------2--------2--------|--8--------8--------5--------8--5--|
--0--0--0--0--0--0--0--0--0--0--0--0--|--6--6--6--6--6--6--3--3--3--6--3--|


     PM PM    PM PM    PM PM             PM PM    PM PM    PM PM        
  E  S  S  E  S  S  E  S  S  E  E     E  S  S  E  S  S  E  S  S  E  E   
-----------------------------------|-----------------------------------|
-----------------------------------|-----------------------------------|
-----------------------------------|-----------------------------------|
-----------------------------7-----|-----------------------------7-----|
--2--------2--------2--------5--8--|--2--------2--------2--------5--8--|
--0--0--0--0--0--0--0--0--0-----6--|--0--0--0--0--0--0--0--0--0-----6--|


     PM PM    PM PM    PM PM    PM PM       PM PM    PM PM    PM PM        
  E  S  S  E  S  S  E  S  S  E  S  S     E  S  S  E  S  S  E  S  S  E  E   
--------------------------------------|-----------------------------------|
--------------------------------------|-----------------------------------|
--------------------------------------|-----------------------------------|
--------------------------------------|-----------------------------------|
--2--------2--------2--------2--------|--8--------8--------5--------8--5--|
--0--0--0--0--0--0--0--0--0--0--0--0--|--6--6--6--6--6--6--3--3--3--6--3--|

Riff
                                          PM PM PM    PM    PM    PM  
  E  E  H.                                S  S  E  E  E  E  E  E  E   
---------------------|-----|-----|-----|-----------------------------|
---------------------|-----|-----|-----|-----------------------------|
---------------------|-----|-----|-----|-----------------------------|
---------------------|-----|-----|-----|-----------------------------|
--2------------------|-----|-----|-----|-----------7-----7-----7-----|
--0------------------|-----|-----|-----|--0--0--0-----0-----0-----0--|


     PM    PM                   PM    PM    PM    PM  
  E  E  E  E  E  E  E  E     E  E  E  E  E  E  E  E   
--------------------------|--------------------------|
--------------------------|--------------------------|
--------------------------|--------------------------|
-----------------------9--|--8-----------------------|
--7-----7-----7--6--7-----|--------7-----7-----7-----|
-----0-----0--------------|-----0-----0-----0-----0--|

                           Verse

                                PM PM PM PM    PM PM PM PM  
  E  E  E  E  E  E  E  E     E  S  S  E  E  E  S  S  E  E   
--------------------------|--------------------------------|
--------------------------|--------------------------------|
--------------------------|--------------------------------|
--------------6-----------|--4-----------------------------|
--7--6--7--9-----9--7--6--|--2--2--2--2--2--5--2--2--2--2--|
--------------------------|--------------------------------|


     PM PM PM PM PM                PM PM PM PM    PM PM PM PM  
  E  S  S  E  E  E  E  E  E     E  S  S  E  E  E  S  S  E  E   
-----------------------------|--------------------------------|
-----------------------------|--------------------------------|
-----------------------------|--------------------------------|
--------------------------3--|--4-----------------------------|
--3--2--2--2--2--2--5--L--1--|--2--2--2--2--2--5--2--2--2--2--|
--------------------3--L-----|--------------------------------|


                            PM PM PM PM    PM PM PM PM  
  Q    Q    Q    Q       E  S  S  E  E  E  S  S  E  E   
----------------------|--------------------------------|
----------------------|--------------------------------|
----------------------|--------------------------------|
-------4---------3----|--4-----------------------------|
--5----2----4----1----|--2--2--2--2--2--5--2--2--2--2--|
--3---------2---------|--------------------------------|


     PM PM PM PM PM                PM PM PM PM    PM PM PM PM  
  E  S  S  E  E  E  E  E  E     E  S  S  E  E  E  S  S  E  E   
-----------------------------|--------------------------------|
-----------------------------|--------------------------------|
-----------------------------|--------------------------------|
--------------------------3--|--4-----------------------------|
--3--2--2--2--2--2--5--L--1--|--2--2--2--2--2--5--2--2--2--2--|
--------------------3--L-----|--------------------------------|


  Q    Q    Q    Q       H.           E  E     H.           E  E   
----------------------|---------------------|---------------------|
----------------------|---------------------|---------------------|
----------------------|--8------------9--6--|--8------------9--6--|
-------4---------3----|---------------------|---------------------|
--5----2----4----1----|---------------------|---------------------|
--3---------2---------|---------------------|---------------------|


   H.            E   E      H        E   Q     E   
------------------------|-------------------------|
------------------------|---------------12----14--|
--12------------13------|--15--------L------------|
--------------------14--|-------------------------|
------------------------|-------------------------|
------------------------|-------------------------|


         PM PM PM PM PM PM PM    PM       PM                    
   Q     S  S  S  S  S  S  E  E  E     E  E  E  E  E  E  E  E   
------------------------------------|--------------------------|
--12\-------------------------------|--------------------------|
------------------------------------|--------------------------|
------------------------------------|--------------------------|
------------------------------5-----|--3-----2--3--0--2--3--5--|
---------2--2--2--2--2--2--2-----2--|-----2--------------------|


        PM PM PM PM PM PM PM    PM       PM                    
  Q     S  S  S  S  S  S  E  E  E     E  E  E  E  E  E  E  E   
-----------------------------------|--------------------------|
-----------------------------------|--------------------------|
-----------------------------------|--------------------------|
-----------------------------------|--------------------------|
--7\-------------------------5-----|--3-----2--3--0--2--3--5--|
--------2--2--2--2--2--2--2-----2--|-----2--------------------|


  PM PM PM PM PM PM PM PM PM PM PM PM PM PM PM PM  
  S  S  S  S  S  S  S  S  S  S  S  S  S  S  S  S   
--------------------------------------------------|
--------------------------------------------------|
--------------------------------------------------|
--------------------------------------------------|
--------------------------------------------------|
--3--3--3--3--3--3--3--3--3--3--3--3--5--5--3--3--|


  PM PM PM PM PM PM PM PM PM PM PM PM        
  S  S  S  S  S  S  S  S  S  S  S  S  E  E   
--------------------------------------------|
--------------------------------------------|
--------------------------------------------|
--------------------------------------------|
--------------------------------------------|
--2--2--2--2--2--2--2--2--2--2--2--2--3--2--|


  PM PM PM PM PM PM PM PM PM PM PM PM PM PM PM PM  
  S  S  S  S  S  S  S  S  S  S  S  S  S  S  S  S   
--------------------------------------------------|
--------------------------------------------------|
--------------------------------------------------|
--------------------------------------------------|
--8--8--8--8--8--8--7--7--7--7--7--7--5--5--5--5--|
--------------------------------------------------|


  PM PM PM PM PM PM PM PM PM PM PM PM PM PM PM PM  
  S  S  S  S  S  S  S  S  S  S  S  S  S  S  S  S   
--------------------------------------------------|
--------------------------------------------------|
--------------------------------------------------|
--------------------------------------------------|
--------------------------------------5--5--5--5--|
--8--8--8--8--8--8--7--7--7--7--7--7--------------|


        PM PM PM PM PM PM PM    PM       PM                    
  Q     S  S  S  S  S  S  E  E  E     E  E  E  E  E  E  E  E   
-----------------------------------|--------------------------|
-----------------------------------|--------------------------|
-----------------------------------|--------------------------|
-----------------------------------|--------------------------|
--7\-------------------------5-----|--3-----2--3--0--2--3--5--|
--------2--2--2--2--2--2--2-----2--|-----2--------------------|


        PM PM PM PM PM PM PM    PM       PM                    
  Q     S  S  S  S  S  S  E  E  E     E  E  E  E  E  E  E  E   
-----------------------------------|--------------------------|
-----------------------------------|--------------------------|
-----------------------------------|--------------------------|
-----------------------------------|--------------------------|
--7\-------------------------5-----|--3-----2--3--0--2--3--5--|
--------2--2--2--2--2--2--2-----2--|-----2--------------------|


  PM PM PM PM PM PM PM PM PM PM PM PM PM PM PM PM  
  S  S  S  S  S  S  S  S  S  S  S  S  S  S  S  S   
--------------------------------------------------|
--------------------------------------------------|
--------------------------------------------------|
--------------------------------------------------|
--------------------------------------------------|
--3--3--3--3--3--3--3--3--3--3--3--3--5--5--3--3--|


  PM PM PM PM PM PM PM PM PM PM PM PM        
  S  S  S  S  S  S  S  S  S  S  S  S  E  E   
--------------------------------------------|
--------------------------------------------|
--------------------------------------------|
--------------------------------------------|
--------------------------------------------|
--2--2--2--2--2--2--2--2--2--2--2--2--3--2--|


  PM PM PM PM PM PM PM PM PM PM PM PM PM PM PM PM  
  S  S  S  S  S  S  S  S  S  S  S  S  S  S  S  S   
--------------------------------------------------|
--------------------------------------------------|
--------------------------------------------------|
--------------------------------------------------|
--8--8--8--8--8--8--7--7--7--7--7--7--5--5--5--5--|
--------------------------------------------------|

                                    Chorus

  PM PM PM PM PM PM PM PM                 PM PM    PM PM    PM PM        
  S  S  S  S  S  S  S  S  Q    Q       E  S  S  E  S  S  E  S  S  E  E   
------------------------------------|-----------------------------------|
------------------------------------|-----------------------------------|
------------------------------------|-----------------------------------|
--5--5--5--5--5--5--5--5-------7----|-----------------------------7-----|
--------------------------8----5----|--2--------2--------2--------5--8--|
--------------------------6---------|--0--0--0--0--0--0--0--0--0-----6--|


     PM PM    PM PM    PM PM    PM PM       PM PM    PM PM    PM PM        
  E  S  S  E  S  S  E  S  S  E  S  S     E  S  S  E  S  S  E  S  S  E  E   
--------------------------------------|-----------------------------------|
--------------------------------------|-----------------------------------|
--------------------------------------|-----------------------------------|
--------------------------------------|-----------------------------------|
--2--------2--------2--------2--------|--8--------8--------5--------8--5--|
--0--0--0--0--0--0--0--0--0--0--0--0--|--6--6--6--6--6--6--3--3--3--6--3--|


     PM PM    PM PM    PM PM             PM PM    PM PM    PM PM        
  E  S  S  E  S  S  E  S  S  E  E     E  S  S  E  S  S  E  S  S  E  E   
-----------------------------------|-----------------------------------|
-----------------------------------|-----------------------------------|
-----------------------------------|-----------------------------------|
-----------------------------7-----|-----------------------------7-----|
--2--------2--------2--------5--8--|--2--------2--------2--------5--8--|
--0--0--0--0--0--0--0--0--0-----6--|--0--0--0--0--0--0--0--0--0-----6--|


     PM PM    PM PM    PM PM    PM PM       PM PM    PM PM    PM PM        
  E  S  S  E  S  S  E  S  S  E  S  S     E  S  S  E  S  S  E  S  S  E  E   
--------------------------------------|-----------------------------------|
--------------------------------------|-----------------------------------|
--------------------------------------|-----------------------------------|
--------------------------------------|-----------------------------------|
--2--------2--------2--------2--------|--8--------8--------5--------8--5--|
--0--0--0--0--0--0--0--0--0--0--0--0--|--6--6--6--6--6--6--3--3--3--6--3--|


           PM PM    PM PM PM PM    PM    PM PM PM    PM PM PM PM  
  E  E  E  E  E  E  S  S  S  S     E  E  E  E  E  E  S  S  S  S   
--------------------------------|--------------------------------|
--------------------------------|--------------------------------|
--------------------------------|--------------------------------|
--------------------------------|--------------------------------|
--1--0--------------------------|--------------------------------|
--------3--0--0-----0--0--0--0--|--0-----0--0--0-----0--0--0--0--|


  PM    PM PM PM    PM PM PM PM    PM    PM PM PM PM PM PM     
  E  E  E  E  E  E  S  S  S  S     E  E  S  S  E  E  E  E  E   
--------------------------------|-----------------------------|
--------------------------------|-----------------------------|
--------------------------------|-----------------------------|
--------------------------------|-----------------------------|
--------------------------------|--------------------------5--|
--0-----0--0--0-----0--0--0--0--|--0-----0--0--0--0--2--3-----|


           PM PM    PM PM PM PM    PM    PM PM PM    PM PM  
  E  E  E  E  E  E  S  S  S  S     E  E  E  E  E  E  E  E   
--------------------------------|--------------------------|
--------------------------------|--------------------------|
--------------------------------|--------------------------|
--------------------------------|--------------------------|
--1--0--------------------------|--------------------------|
--------3--0--0-----0--0--0--0--|--0-----0--0--0-----0--0--|


     PM PM PM              PM PM PM               
  E  E  E  E  H            E  E  E  E  H          
------------------------|------------------------|
------------------------|------------------------|
------------------------|------------------------|
------------------------|------------------------|
--5-----------5~--------|-----------8------------|
-----6--5--6------------|--6--5--6-----6~--------|

Interlude

           PM PM    PM PM PM PM    PM    PM PM PM    PM PM PM PM  
  E  E  E  E  E  E  S  S  S  S     E  E  E  E  E  E  S  S  S  S   
--------------------------------|--------------------------------|
--------------------------------|--------------------------------|
--------------------------------|--------------------------------|
--------------------------------|--------------------------------|
--1--0--------------------------|--------------------------------|
--------3--0--0-----0--0--0--0--|--0-----0--0--0-----0--0--0--0--|


  PM    PM PM PM    PM PM PM PM    PM    PM PM PM PM PM PM     
  E  E  E  E  E  E  S  S  S  S     E  E  S  S  E  E  E  E  E   
--------------------------------|-----------------------------|
--------------------------------|-----------------------------|
--------------------------------|-----------------------------|
--------------------------------|-----------------------------|
--------------------------------|--------------------------5--|
--0-----0--0--0-----0--0--0--0--|--0-----0--0--0--0--2--3-----|


           PM PM    PM PM PM PM    PM    PM PM PM    PM PM  
  E  E  E  E  E  E  S  S  S  S     E  E  E  E  E  E  E  E   
--------------------------------|--------------------------|
--------------------------------|--------------------------|
--------------------------------|--------------------------|
--------------------------------|--------------------------|
--1--0--------------------------|--------------------------|
--------3--0--0-----0--0--0--0--|--0-----0--0--0-----0--0--|


     PM PM PM              PM PM PM               
  E  E  E  E  H            E  E  E  E  H          
------------------------|------------------------|
------------------------|------------------------|
------------------------|------------------------|
------------------------|------------------------|
--5-----------5~--------|-----------8------------|
-----6--5--6------------|--6--5--6-----6~--------|


           PM PM    PM PM PM PM    PM    PM PM PM    PM PM PM PM  
  E  E  E  E  E  E  S  S  S  S     E  E  E  E  E  E  S  S  S  S   
--------------------------------|--------------------------------|
--------------------------------|--------------------------------|
--------------------------------|--------------------------------|
--------------------------------|--------------------------------|
--1--0--------------------------|--------------------------------|
--------3--0--0-----0--0--0--0--|--0-----0--0--0-----0--0--0--0--|


  PM    PM PM PM    PM PM PM PM    PM    PM PM PM PM PM PM     
  E  E  E  E  E  E  S  S  S  S     E  E  S  S  E  E  E  E  E   
--------------------------------|-----------------------------|
--------------------------------|-----------------------------|
--------------------------------|-----------------------------|
--------------------------------|-----------------------------|
--------------------------------|--------------------------5--|
--0-----0--0--0-----0--0--0--0--|--0-----0--0--0--0--2--3-----|


           PM PM    PM PM PM PM    PM    PM PM PM    PM PM  
  E  E  E  E  E  E  S  S  S  S     E  E  E  E  E  E  E  E   
--------------------------------|--------------------------|
--------------------------------|--------------------------|
--------------------------------|--------------------------|
--------------------------------|--------------------------|
--1--0--------------------------|--------------------------|
--------3--0--0-----0--0--0--0--|--0-----0--0--0-----0--0--|

                                                   Verse

     PM PM PM                            PH                             
  E  E  E  E  H            E  E  E  E    H            W                 
------------------------|--------------------------|-------------------|
------------------------|-----------6--------------|-------------------|
------------------------|--------------------------|--9----------------|
------------------------|--8--7--8-----<>8~--------|-------------------|
--8-----------8~--------|--------------------------|--7----------------|
-----6--5--6------------|--------------------------|-------------------|


  Q    Q    Q    Q       E    E   H         Q        W                 
----------------------|---------------------------|-------------------|
----------------------|---------------------------|-------------------|
--L----9----9----9----|--9s--10--10--------12s----|--7----------------|
----------------------|---------------------------|-------------------|
--L----7----7----7----|--7s---8---8--------10s----|--5----------------|
----------------------|---------------------------|-------------------|


   W                   Q     Q     E    E   Q        W                 
--------------------|----------------------------|--------------------|
--------------------|----------------------------|--------------------|
--16----------------|--L----16----16s--18--16----|--15----------------|
--------------------|----------------------------|--------------------|
--14----------------|--L----14----14s--16--14----|--13----------------|
--------------------|----------------------------|--------------------|


   Pick Slide                                                               
   TP         TP    TP    TP                                                
   Q          Q     Q     Q        W                   Q    Q    Q    Q     
--12s--------10s----9s----7s----|-------------------|----------------------|
--------------------------------|-------------------|----------------------|
--------------------------------|--9----------------|--L----9----9----9----|
--------------------------------|-------------------|----------------------|
--------------------------------|--7----------------|--L----7----7----7----|
--------------------------------|-------------------|----------------------|


  E    E   H         Q        W                    W                 
---------------------------|-------------------|--------------------|
---------------------------|-------------------|--------------------|
--9s--10--10--------12s----|--7----------------|--16----------------|
---------------------------|-------------------|--------------------|
--7s---8---8--------10s----|--5----------------|--14----------------|
---------------------------|-------------------|--------------------|


  Q     Q     E    E   Q        W                   W                 
----------------------------|--------------------|-------------------|
----------------------------|--------------------|-------------------|
--L----16----16s--18--16----|--15----------------|--L----------------|
----------------------------|--------------------|-------------------|
--L----14----14s--16--14----|--13----------------|--L----------------|
----------------------------|--------------------|-------------------|


  W                   Q    Q    Q    Q       E    E   H         Q      
-------------------|----------------------|---------------------------|
-------------------|----------------------|---------------------------|
--9----------------|--L----9----9----9----|--9s--10--10--------12s----|
-------------------|----------------------|---------------------------|
--7----------------|--L----7----7----7----|--7s---8---8--------10s----|
-------------------|----------------------|---------------------------|


  W                    W                   Q     Q     E    E   Q     
-------------------|--------------------|----------------------------|
-------------------|--------------------|----------------------------|
--7----------------|--16----------------|--L----16----16s--18--16----|
-------------------|--------------------|----------------------------|
--5----------------|--14----------------|--L----14----14s--16--14----|
-------------------|--------------------|----------------------------|

                                         SOLO!!!!!!

   W                   W                    Q.       Q      E  S   S  S  S  
--------------------|-------------------|--11b------11pb----8--8h-10p-8----|
--------------------|-------------------|-------------------------------10-|
--11----------------|--L----------------|----------------------------------|
--------------------|-------------------|----------------------------------|
---9----------------|--L----------------|----------------------------------|
--------------------|-------------------|----------------------------------|


      PM PM  PM     PM PM                                      
  E   E  E   E  E   E  S  S E      E  E  E  E  S S  S S E  E   
--8-------------8--------------|------------------------------|
-----10--8--10--8--10--8--9-8--|--10--8-----------------------|
-------------------------------|---------9--7--9-7S-5-5-7--5--|
-------------------------------|------------------------------|
-------------------------------|------------------------------|
-------------------------------|------------------------------|


  S S S S S S E  E  E   Q        Q     E    E    E   E   E   E     
------------------------------|-------17h--19p--17----------------|
------------------------------|---------------------17------20br--|
-----------------5------------|-------------------------17--------|
--7-7-5-5-6-6-7-----7~--L\----|-----------------------------------|
------------------------------|-----------------------------------|
------------------------------|-----------------------------------|


  E   E   E   E   Q     E   E     E  E   E  E  E    E   E   E    
-------------------------------|--5---------8----------11-------|
--L--20--17-------------1s--4--|-----4s--7-----7s--10------10s--|
-------------17----------------|--------------------------------|
-----------------19\-----------|--------------------------------|
-------------------------------|--------------------------------|
-------------------------------|--------------------------------|


                                    Mille's turn
                                           PM PM PM PM PM        PM PM PM PM  
   E   E   E    E   E   E    E   E      E  E  S  S  S  S  E   E  S  S  S  S   
------14-----------17-----------20--|----------------------------------------|
--13------13s--16------16s--19------|----------------------------------------|
------------------------------------|--21--L--L--L--L--L--L---L--L--L--L--L--|
------------------------------------|----------------------------------------|
------------------------------------|---2------------------------------------|
------------------------------------|---0--0--0--0--0--0--3p--0--0--0--0--0--|


         PM PM PM PM                  PM PM PM PM PM        PM PM PM PM  
  E   E  S  S  S  S  E  E  Q       E  E  S  S  S  S  E   E  S  S  S  S   
--------------------------------|---------------------------------------|
--------------------------------|---------------------------------------|
--------------------------------|---------------------------------------|
--------------------------------|---------------------------------------|
---------------------------7----|--2------------------------------------|
--2p--0--0--0--0--0--2--3--5----|--0--0--0--0--0--0--3p--0--0--0--0--0--|


         PM PM PM PM                  PM PM PM PM PM        PM PM PM PM  
  E   E  S  S  S  S  E  E  Q       E  E  S  S  S  S  E   E  S  S  S  S   
--------------------------------|---------------------------------------|
--------------------------------|---------------------------------------|
--------------------------------|---------------------------------------|
--------------------------------|---------------------------------------|
---------------------------4----|--2------------------------------------|
--2p--0--0--0--0--0--5--3--2----|--0--0--0--0--0--0--3p--0--0--0--0--0--|


         PM PM PM PM                  PM PM PM PM PM        PM PM PM PM  
  E   E  S  S  S  S  E  E  Q       E  E  S  S  S  S  E   E  S  S  S  S   
--------------------------------|---------------------------------------|
--------------------------------|---------------------------------------|
--------------------------------|---------------------------------------|
--------------------------------|---------------------------------------|
---------------------------7----|--2------------------------------------|
--2p--0--0--0--0--0--2--3--5----|--0--0--0--0--0--0--3p--0--0--0--0--0--|


                                 Bloody beautiful outro riff

         PM PM PM PM                                             
                                                   |-3-|         
  E   E  S  S  S  S  E  E  Q       E  S S E  E  E  S S S  E  E   
--------------------------------|-------------------------------|
--------------------------------|-------------------------------|
--------------------------------|-------------------------------|
--------------------------------|-----9-9-9--7--9--7-9-7--------|
---------------------------4----|--7---------------------10--9--|
--2p--0--0--0--0--0--5--3--2----|-------------------------------|


                   |--3-|                           |-3-|         
  E  S S E  E   E  S  S S E   E     E  S S E  E  E  S S S  E  E   
---------------------------------|-------------------------------|
---------------------------------|-------------------------------|
---------------------------------|-------------------------------|
-----7-7-7--9--10--9-10-9-7------|-----9-9-9--7--9--7-9-7--------|
--8--------------------------10--|--7---------------------10--9--|
---------------------------------|-------------------------------|


                                                |-3-|         
  E  S S E  E   E  E   Q        E  S S E  E  E  S S S  E  E   
-----------------------------|-------------------------------|
-----------------------------|-------------------------------|
-------------------7--10~----|-------------------------------|
-----7-7-7--9--10------------|-----9-9-9--7--9--7-9-7--------|
--8--------------------------|--7---------------------10--9--|
-----------------------------|-------------------------------|


                   |--3-|                           |-3-|         
  E  S S E  E   E  S  S S E   E     E  S S E  E  E  S S S  E  E   
---------------------------------|-------------------------------|
---------------------------------|-------------------------------|
---------------------------------|-------------------------------|
-----7-7-7--9--10--9-10-9-7------|-----9-9-9--7--9--7-9-7--------|
--8--------------------------10--|--7---------------------10--9--|
---------------------------------|-------------------------------|


                                                |-3-|         
  E  S S E  E   E  E   Q        E  S S E  E  E  S S S  E  E   
-----------------------------|-------------------------------|
-----------------------------|-------------------------------|
-------------------7--10~----|-------------------------------|
-----7-7-7--9--10------------|-----9-9-9--7--9--7-9-7--------|
--8--------------------------|--7---------------------10--9--|
-----------------------------|-------------------------------|


                   |--3-|                           |-3-|         
  E  S S E  E   E  S  S S E   E     E  S S E  E  E  S S S  E  E   
---------------------------------|-------------------------------|
---------------------------------|-------------------------------|
---------------------------------|-------------------------------|
-----7-7-7--9--10--9-10-9-7------|-----9-9-9--7--9--7-9-7--------|
--8--------------------------10--|--7---------------------10--9--|
---------------------------------|-------------------------------|


                                                |-3-|         
  E  S S E  E   E  E   Q        E  S S E  E  E  S S S  E  E   
-----------------------------|-------------------------------|
-----------------------------|-------------------------------|
-------------------7--10~----|-------------------------------|
-----7-7-7--9--10------------|-----9-9-9--7--9--7-9-7--------|
--8--------------------------|--7---------------------10--9--|
-----------------------------|-------------------------------|


                   |--3-|                           |-3-|         
  E  S S E  E   E  S  S S E   E     E  S S E  E  E  S S S  E  E   
---------------------------------|-------------------------------|
---------------------------------|-------------------------------|
---------------------------------|-------------------------------|
-----7-7-7--9--10--9-10-9-7------|-----9-9-9--7--9--7-9-7--------|
--8--------------------------10--|--7---------------------10--9--|
---------------------------------|-------------------------------|


                                                       |--3--|          
  E  S S E  E   E  E   Q         E   S  S  E   E   E   S  S  S  E   E   
-----------------------------|-----------------------------------------|
-----------------------------|-----------------------------------------|
-------------------7--10~----|------16-16-16--14--16--14-16-14---------|
-----7-7-7--9--10------------|--14-----------------------------17--16--|
--8--------------------------|-----------------------------------------|
-----------------------------|-----------------------------------------|


                         |--3--|          
   E   S  S  E   E   E   S  S  S  E   E   
-----------------------------------------|
-----------------------------------------|
------14-14-14--16--17--16-17-16-14------|
--15---------------------------------17--|
-----------------------------------------|
-----------------------------------------|


                         |--3--|                                              
   E   S  S  E   E   E   S  S  S  E   E      E   S  S  E   E   E   E   Q      
-----------------------------------------|-----------------------------------|
-----------------------------------------|------------------------15--18~----|
------16-16-16--14--16--14-16-14---------|------14-14-14--16--17-------------|
--14-----------------------------17--16--|--15-------------------------------|
-----------------------------------------|-----------------------------------|
-----------------------------------------|-----------------------------------|


                         |--3--|          
   E   S  S  E   E   E   S  S  S  E   E   
-----------------------------------------|
-----------------------------------------|
------16-16-16--14--16--14-16-14---------|
--14-----------------------------17--16--|
-----------------------------------------|
-----------------------------------------|


                         |--3--|          
   E   S  S  E   E   E   S  S  S  E   E   
-----------------------------------------|
-----------------------------------------|
------14-14-14--16--17--16-17-16-14------|
--15---------------------------------17--|
-----------------------------------------|
-----------------------------------------|


                         |--3--|                                              
   E   S  S  E   E   E   S  S  S  E   E      E   S  S  E   E   E   E   Q      
-----------------------------------------|-----------------------------------|
-----------------------------------------|------------------------15--18~----|
------16-16-16--14--16--14-16-14---------|------14-14-14--16--17-------------|
--14-----------------------------17--16--|--15-------------------------------|
-----------------------------------------|-----------------------------------|
-----------------------------------------|-----------------------------------|


   E   E   E   E   E   E   E   E      E   S  S  E   E   S  S  E   S  S  E   
--12------------------12----------|--14------------15--------17--------14--|
--------------12----------12------|------15-15-15------15-15-----15-15-----|
------12--14------------------12--|----------------------------------------|
------------------14--------------|----------------------------------------|
----------------------------------|----------------------------------------|
----------------------------------|----------------------------------------|


   E   E   E   E   E   E   E   E      E   S  S  E   E   S  S  E   S  S  E   
--12------------------12----------|--14------------15--------14--------14--|
--------------12----------12------|------15-15-15------15-15-----15-15-----|
------12--14------------------12--|----------------------------------------|
------------------14--------------|----------------------------------------|
----------------------------------|----------------------------------------|
----------------------------------|----------------------------------------|


   E   E   E   E   E   E   E   E      E   S  S  E   E   S  S  E   S  S  E   
--12------------------12----------|--14------------15--------17--------14--|
--------------12----------12------|------15-15-15------15-15-----15-15-----|
------12--14------------------12--|----------------------------------------|
------------------14--------------|----------------------------------------|
----------------------------------|----------------------------------------|
----------------------------------|----------------------------------------|


   E   E   E   E   E   E   E   E      E   S  S  E   E   S  S  E   S  S  E   
--12------------------12----------|--14------------15--------14--------14--|
--------------12----------12------|------15-15-15------15-15-----15-15-----|
------12--14------------------12--|----------------------------------------|
------------------14--------------|----------------------------------------|
----------------------------------|----------------------------------------|
----------------------------------|----------------------------------------|


   W                   W                   W                 
--12----------------|--L----------------|--L----------------|
--12----------------|--L----------------|--L----------------|
--------------------|-------------------|-------------------|
--------------------|-------------------|-------------------|
--------------------|-------------------|-------------------|
--------------------|-------------------|-------------------|


  W                   H.           Q       
--L----------------|--L------------L\----||
-------------------|---------------------||
-------------------|---------------------||
-------------------|---------------------||
-------------------|---------------------||
-------------------|---------------------||


_________________________________________________________________________

                                Hordes of Chaos                                 


                                                                         
Mille Petrozza: this is the rythym play at same time as lead(duh).



                                        PM       PM       PM  
                                     E  E  E  E  E  E  E  E   
E||-------|-------|-------|-------|--------------------------|
B||-------|-------|-------|-------|--------------------------|
G||-------|-------|-------|-------|--------------------------|
D||-------|-------|-------|-------|--2--------------2--------|
A||-------|-------|-------|-------|--------0--2--------2-----|
E||-------|-------|-------|-------|-----3--------0--------3--|


     PM PM PM    PM PM    PM PM          PM       PM       PM  
  E  S  S  E  E  S  S  E  S  S  E     E  E  E  E  E  E  E  E   
-----------------------------------|--------------------------|
-----------------------------------|--------------------------|
-----------------------------------|--------------------------|
--4-----------5--------7--------4--|--2--------------2--------|
-----5--5--5-----5--5-----5--5-----|--------0--2--------2-----|
-----------------------------------|-----3--------0--------3--|


     PM PM PM    PM PM    PM PM                         
  E  S  S  E  E  S  S  E  S  S  E     W                 
-----------------------------------|-------------------|
-----------------------------------|-------------------|
-----------------------------------|-------------------|
--4-----------5--------4--------4--|--9----------------|
-----5--5--5-----5--5-----5--5-----|--7----------------|
-----------------------------------|--0----------------|


   H        E  E  E   E     W                    H        E  E  E   E   
-------------------------|-------------------|-------------------------|
-------------------------|-------------------|-------------------------|
-------------------------|-------------------|-------------------------|
--11--------L--7-----11--|--9----------------|--11--------L--7-----11--|
---9--------L--5------9--|--7----------------|---9--------L--5------9--|
---9--------L--5------9--|--0----------------|---9--------L--5------9--|


  W                    H        E  E  E   E     W                 
-------------------|-------------------------|-------------------|
-------------------|-------------------------|-------------------|
-------------------|-------------------------|-------------------|
--9----------------|--11--------L--7-----11--|--9----------------|
--7----------------|---9--------L--5------9--|--7----------------|
--0----------------|---9--------L--5------9--|--0----------------|


   H        E  E  E   E     H        H           W                 
-------------------------|--------------------|-------------------|
-------------------------|--------------------|-------------------|
-------------------------|--------------------|-------------------|
--11--------L--7-----11--|--9--------7--------|--5----------------|
---9--------L--5------9--|--7--------5--------|--3----------------|
---9--------L--5------9--|--------------------|-------------------|


  H        H           W                   H        H         
--------------------|-------------------|--------------------|
--------------------|-------------------|--------------------|
--------------------|-------------------|--------------------|
--9-----------------|-------------------|--9--------7--------|
--7--------6--------|--7----------------|--7--------5--------|
-----------4--------|--5----------------|--------------------|


  W                   H        H           H        H         
-------------------|--------------------|--------------------|
-------------------|--------------------|--------------------|
-------------------|--------------------|--------------------|
--5----------------|--9-----------------|-----------7--------|
--3----------------|--7--------6--------|--7--------5--------|
-------------------|-----------4--------|--5-----------------|


  PM PM PM    PM    PM    PM       PM    PM              
  S  S  E  E  E  E  E  E  E     E  E  E  E  E  E  E  E   
-----------------------------|--------------------------|
-----------------------------|--------------------------|
-----------------------------|--------------------------|
-----------------------------|-----------------------9--|
-----------7-----7-----7-----|--7-----7-----7--6--7-----|
--0--0--0-----0-----0-----0--|-----0-----0--------------|


     PM    PM    PM    PM       PM    PM              
  E  E  E  E  E  E  E  E     E  E  E  E  E  E  E  E   
--------------------------|--------------------------|
--------------------------|--------------------------|
--------------------------|--------------------------|
--8-----------------------|--------------------------|
--------7-----7-----7-----|--7-----7-----7--6--------|
-----0-----0-----0-----0--|-----0-----0--------9--7--|


  PM PM PM    PM    PM    PM       PM    PM              
  S  S  E  E  E  E  E  E  E     E  E  E  E  E  E  E  E   
-----------------------------|--------------------------|
-----------------------------|--------------------------|
-----------------------------|--------------------------|
-----------------------------|-----------------------9--|
-----------7-----7-----7-----|--7-----7-----7--6--7-----|
--0--0--0-----0-----0-----0--|-----0-----0--------------|


     PM    PM    PM    PM                             
  E  E  E  E  E  E  E  E     E  E  E  E  E  E  E  E   
--------------------------|--------------------------|
--------------------------|--------------------------|
--------------------------|--------------------------|
--8-----------------------|--------------6-----------|
--------7-----7-----7-----|--7--6--7--9-----9--7--6--|
-----0-----0-----0-----0--|--------------------------|


  PM PM PM    PM    PM    PM       PM    PM              
  S  S  E  E  E  E  E  E  E     E  E  E  E  E  E  E  E   
-----------------------------|--------------------------|
-----------------------------|--------------------------|
-----------------------------|--------------------------|
-----------------------------|-----------------------9--|
-----------7-----7-----7-----|--7-----7-----7--6--7-----|
--0--0--0-----0-----0-----0--|-----0-----0--------------|


     PM    PM    PM    PM       PM    PM              
  E  E  E  E  E  E  E  E     E  E  E  E  E  E  E  E   
--------------------------|--------------------------|
--------------------------|--------------------------|
--------------------------|--------------------------|
--8-----------------------|--------------------------|
--------7-----7-----7-----|--7-----7-----7--6--------|
-----0-----0-----0-----0--|-----0-----0--------9--7--|


  PM PM PM    PM    PM    PM       PM    PM              
  S  S  E  E  E  E  E  E  E     E  E  E  E  E  E  E  E   
-----------------------------|--------------------------|
-----------------------------|--------------------------|
-----------------------------|--------------------------|
-----------------------------|-----------------------9--|
-----------7-----7-----7-----|--7-----7-----7--6--7-----|
--0--0--0-----0-----0-----0--|-----0-----0--------------|


     PM    PM    PM    PM                             
  E  E  E  E  E  E  E  E     E  E  E  E  E  E  E  E   
--------------------------|--------------------------|
--------------------------|--------------------------|
--------------------------|--------------------------|
--8-----------------------|--------------6-----------|
--------7-----7-----7-----|--7--6--7--9-----9--7--6--|
-----0-----0-----0-----0--|--------------------------|


     PM PM PM PM    PM PM PM PM       PM PM PM PM PM           
  E  S  S  E  E  E  S  S  E  E     E  S  S  E  E  E  E  E  E   
--------------------------------|-----------------------------|
--------------------------------|-----------------------------|
--------------------------------|-----------------------------|
--4-----------------------------|--------------------------3--|
--2--2--2--2--2--5--2--2--2--2--|--3--2--2--2--2--2--5--L--1--|
--------------------------------|--------------------3--L-----|


     PM PM PM PM    PM PM PM PM                                     
  E  S  S  E  E  E  S  S  E  E     S S S S S S S S S S S S S S S S  
--------------------------------|----------------------------------|
--------------------------------|----------------------------------|
--------------------------------|----------------------------------|
--4-----------------------------|------
Добавлено: 10.03.2012
Другие материалы по этой песне:

Страница создана 10.03.2012
http://primanota.ru/kreator/hordes-of-chaos-chords.htm
Привет, Гость.
Предлагаем пройти революционный курс по гитаре.
Подарок от PrimaNota.Ru, забирай!