PrimaNota.ru - самый крупный в мире бесплатный архив песенных текстов, аккордов, табулатур и нот


Kreator - Death - Deathkiss - аккорды и текст, видео

Регистрация Запомнить меня
Войти через:  Facebook Google Twitter Vk Yandex Mail.ru

Kreator - Death - Deathkiss - аккорды и текст, видео

Печатать
Просмотров: 82
Death - Deathkiss
Kreator
This is the tab of a great song originaly performed by KISS.  But in my
opinion DEATH gave some real balls to the song.  I play the entire song
with these riff but i guess that there are some variations during the
song but i just to lazy to figure them out.
 
the KISS & DEATH tuning is E flat (tune down 1/2 step)


Opening Riff 

--/----------------/-----------------/----------------/-------------------/----------------/----------------
--/----------------/-----------------/----------------/-------------------/----------------/-----------------
--/----------------/-----------------/----------------/-------------------/----------------/---5--5-7-7b-5-7-
--/----------------/---------------5-/----------------/---5--5-7-7b--5-7--/----------------/---5--5-7-7b-5-7-
--/-------7----5h7-/---7--------5-7--/-------7----5h7-/---7---------------/-------7----5h7-/---7-------------
--/-0--0----0------/-0---0--0--------/-0--0----0------/-0-----------------/-0--0----0------/-0---------------
    .  .    .        .   .  .          .  .    .       
.          .  .    .        .

then something i guess you can call a bridge

----------------------------------
----------------------------------
----------------------------------
----------------------------------
-------7---5h7------7---5h7--5h7--
--0--0---0-----0--0---0-----------
  .  .   .     .  .   .


chorus or something like that

--------------------------------/--------------------------------------/-------
--------------------------------/--------------------------------------/---3---
--------------------------------/-@------------------4----------------/-0---3-
--5--5--------7--7--9--5--5--9--/-@-2-2-2-2-2-2-2-4~-5--5--5--5--5--0-/-------
--3--3--5--5--5--5--7--3--3--7--/---0-0-0-0-0-0-0----2--3--2--3--2--3--/-0-----
--------3--3--------------------/--------------------------------------/-------


the ending of this godly song

-------
-------
--9--9-
--9--9-
--7--7-
-------

______________________________________________________________________________________________________________


Kreator : Bringer of torture
tuning D
I only know the opening riff out of my head


------------------------------------------------------------
------------------------------------------------------------
------------------------------------------------------------
---------4-5-----------8-7---------4-5----------------------
---------2-3-----------6-5---------2-3--222-444-555-444-----
--00-420-------00-750-------00-420------000-222-333-222-----
  .. ...       .. ...       .. ...      ... ... ... ...


then comes another riff which sounds like 

----------------
----------------
----------------
-----4--6-------
--3--2--4--8--7-
--1--------6--5-


some other riff

---------------------------------------------
---------------------------------------------
---------------------------------------------
--4/5---1/2-----------4/5---1/2------3----3--
--5/6---2/3-----------5/6---2/3------1----1--
------0-----0000-0000-----0------0000--00----



Kreator : under the guillotine
Tuning D

Riff A

----------------------------	this is played 2 time by git.I  then 2
times doubles by git. II  and finally 
----------------------------	the drums compeletes the break 2 times. 
Then play this 4 times without vocals
----------------------------	and then 8 times with vocals.
------10-----9-------10-10--
-0000-8-0000-7-0000--8--8---
----------------------------
 ....   ....   ....

Riff B

----------------------------------	this riff is played 2 times.
-----------------------------------
-----------------------------------
-------------9-9-------------10-10-
--5555-5555--7-7--5555-5555--8--8--
-----------------------------------
  .... ....       .... ....
Now play Riff A again 4 times

Riff C

-------------------------------------------------------------------------
this is played 2 times
-------------------------------------------------------------------------
-------------------------------------------------------------------------
-----------------------10-----9-------10-10--------10-----9-------10-10--
------------------0000-8-0000-7-0000--8--8----0000-8-0000-7-0000--8--8---
--3333-5555-6666---------------------------------------------------------
  .... .... ....  ....   ....   ....          ....   ....   ....

then repeat riff A 8 times, riff B 2 times, riff A 4 times, riff C 2
times



then comes a bridge like riff some solo's (I'll tab them some other time
cause I'm doing this out of my head)

just before returning to The fast part under the last slow solo
didn't feel like counting this times

-----------------------------------------			------------
-----------------------------------------			------------
-----------------------------------------			------------
----------9-7--5--------------9-7--10----  the turning point
------------
-2--7--9--7-5--3-----2--7--9--7-5--8-----  is something like
-9--7--2--7-
-0--5--7-------------0--5--7-------------			-7--5--0--5-


in the end riff A & B are played again but with solo's on top of them
Добавлено: 20.01.2014
Другие материалы по этой песне:
  • Аккорды и текст

Страница создана 20.01.2014
http://primanota.ru/kreator/death-deathkiss-chords.htm
Привет, Гость.
Предлагаем пройти революционный курс по гитаре.
Подарок от PrimaNota.Ru, забирай!