PrimaNota.ru - самый крупный в мире бесплатный архив песенных текстов, аккордов, табулатур и нот


Kreator - Renewal Live - таба, видео

Регистрация Запомнить меня
Войти через:  Facebook Google Twitter Vk Yandex Mail.ru

Kreator - Renewal Live - таба, видео

Печатать
Просмотров: 44
Уроки эстрадного вокала в Санкт-Петербурге
Artist: Kreator
Song: Renewal (Live)
Album: Live Kreation

Tabbed by:chris

Tuning:D tuning

Gtr. 1
|----------------------------------|
|----------------------------------|
|0------------0--------2-----------|
|2------------2--------4-----------|
|2------------2--------------------|
|0------------0--------------------|
Gtr.2 (wah)
|----------------------------------|
|----------------------------------|
|----------------------------------|
|5------------5--------7--7--------|
|7------------7--------9--9--------|
|----------------------------------|


|--------------------------------------------|
|--------------------------------------------|
|----------------6--------------------6------|
|5-----------6-5-6----5-----------6-5-6-6----| x2
|7-----------6-5-4----7-----------6-5-4-6----|
|--0-0-0-000-4-3--------0-0-0-000-4-3---4----|

|--------------------------------------------------------------|
|--------------------------------------------------------------|
|-------------------------------------------------------6------|
|5--------------------------------------------------6-5-6-6----| x4
|7-2-2-2--2-2-2-2--2-2-2-2--2-2-2-2--2-2-2-2--2-2-2-6-5-4-6----|
|--0-0-0--0-0-0-0--0-0-0-0--0-0-0-0--0-0-0-0--0-0-0-4-3---4----|


Gtr. 1 (riff A.1)
|--------------------------------------------------|
|--------------------------------------------------|
|--------------------------------------------------|
|--10-9-7------7----------10-9-7------7------------| x2
|7--------9-10-----10-9-7--------9-10---10-9-------|
|--------------------------------------------10----|
Gtr. 2 (riff A.2)
|--------------------------------------------------|
|--------------------------------------------------|
|--------------------------------------------------| x2
|--------------------------------------------------|
|--3-2-----------------3-2-------------3-----------|
|0-----5-2-3-5---3-2-0-----5-2-3-5-3-2-------------|


Gtr. 1
|---------------------------------------------------------|
|----------------------0----------------------------------|
|0---------------------2----------------------------------|
|2---------------------2-------------------3--------------|
|2---------------------0-------------------3--------------|
|0-----------------------------------------1--------------|
Gtr. 2
|------------0-------------------0------------------------|
|--------------0-----0-------------0---0------------------|
|------0-----------0-------2---------2---2-----------0----|
|--2-----2-------2-------2---2-----------------3----------|
|----2-----2-----------0-------0-------------3---3--------|
|0-----------------------------------------1-------1------|


Gtr. 1 (under solo)
|----------------------------------|
|----------------------------------|
|----------------------------------|
|---------------3--3-3-3--3-3-3-3--|
|4-4-4-4--4-4-4-1--1-1-1--1-1-1-1--|
|2-2-2-2--2-2-2--------------------|
Gtr. 2 (solo)
|----------------------------------------------------------------------------------|
|22--22--22-19-----17-17-17-19-19-19-20-20-20-19-19-19-17-17-17--20-20-19-19-17-17-|
|--------------22------------------------------------------------------------------|
|----------------------------------------------------------------------------------|
|----------------------------------------------------------------------------------|
|----------------------------------------------------------------------------------|

---------------------------------------|
-20-20-19-19-17-17--20-20-19-19-17-17--|
---------------------------------------|
---------------------------------------|
---------------------------------------|
---------------------------------------|

|--------------------------------------------------------------------------------------------------|
|20-20-19-19-17-17--20-20-19-19-17-17--20-19--17-19-20-19-20-17-19-20--19--19--19--22-19-----------|
|------------------------------------------------------------22--22--------------------------------|
|--------------------------------------------------------------------------------------------------|
|--------------------------------------------------------------------------------------------------|
|--------------------------------------------------------------------------------------------------|

Gtr. 1
|---------------------------------------------------------|
|---------------------------------------------------------|
|---------------------------------------------------------|
|2--------------------------------------------------------|
|2--------------------------------------------------------|
|0--------------------------------------------------------|
Gtr. 2
|---------------------------------------------------------|
|---------------------------------------------------------|
|---------------------------------------------------------|
|--10-9-7------7---------10-9-7------7------10------------|
|7--------9-10----10-9-7--------9-10---10-9---------------|
|---------------------------------------------------------|


Gtr. 1
|---------------------------------------------------------|
|---------------------------------------------------------|
|--12-11-10-------9----------12-11-9-------9--------------|
|9----------11-12----12-11-9---------11-12---12-11--------|
|---------------------------------------------------12----|
|---------------------------------------------------------|
Gtr. 2
|---------------------------------------------------------|
|---------------------------------------------------------|
|---------------------------------------------------------|
|---------------------------------------------------------|
|--3-2----------------3-2-------------3-------------------|
|0-----5-2-3-5--3-2-0-----5-2-3-5-3-2---------------------|


(riff A.1)
(riff A.2)
|----------------------------------|
|----------------------------------|
|----------------------------------|
|2---------------------------------|
|2---------------------------------|
|0---------------------------------|


************************************

| /   slide up
| \   slide down
| h   hammer-on
| p   pull-off
| ~   vibrato
| +   harmonic
| x   Mute note
| b   Bend
| pb  Pre-bend
| br  Bend release
| pbr Pre-bend release
| brb Bend release bend

************************************
Добавлено: 28.08.2015
Вам также может быть интересно:
Другие материалы по этой песне:
  • Аккорды и текст

Страница создана 28.08.2015
http://primanota.ru/kreator/renewal-live-chords.htm
Привет, Гость.
Предлагаем пройти революционный курс по гитаре.
Подарок от PrimaNota.Ru, забирай!