PrimaNota.ru - самый крупный в мире бесплатный архив песенных текстов, аккордов, табулатур и нот


Korn - The Past - текст песни, таба, видео

Регистрация Запомнить меня
Войти через:  Facebook Google Twitter Vk Yandex Mail.ru

Korn - The Past - текст песни, таба, видео

Печатать
Просмотров: 271
-------------------------------------------------------------------------------
                             The Past - Korn
-------------------------------------------------------------------------------
Tabbed by:FRr3AkOnALEaSh
Email:smokin_05@hotmail.com

Tuning:7 String Standard Tuning Down Half A Step (A-D-G-C-F-a-d)

"The Past" is a song from there new album Korn III coming this july. A 2.08 minute 
demo has officially been released and i have attempted to try and figure it out.
Search/download the song for timing, good luck!

Intro, Guitar 1 (Repeat 4x)
D|-----------------|---------------------------------------------------------|
A|-----------------|---------------------------------------------------------|
F|-----------------|---------------------------------------------------------|
C|-----------------|---------------------------------------------------------|
G|--5-6-7---5-6-8--|--5-6-7--------------------------------------------------|
D|-----------------|---------------------------------------------------------|
A|-----------------|---------------------------------------------------------|

Guitar 2 (Repeat x3)
D|---------------------------------------------------------------------------|
A|---------------------------------------------------------------------------|
F|---------------------------------------------------------------------------|
C|---------------------------------------------------------------------------|
G|--22--22--22---2-2~--------------------------------------------------------|
D|--00--00--00---0-0~--------------------------------------------------------|
A|---------------------------------------------------------------------------|
    ..  ..  ..   .
D|---------------------------------------------------------------------------|
A|---------------------------------------------------------------------------|
F|---------------------------------------------------------------------------|
C|---------------------------------------------------------------------------|
G|--22--22---2222------------------------------------------------------------|
D|--00--00---0000------------------------------------------------------------|
A|---------------------------------------------------------------------------|
    ..  ..   ....
D|--------------------------|------------------------------------------------|
A|--------------------------|------------------------------------------------|
F|--------------------------|------------------------------------------------|
C|--------------------------|------------------------------------------------|
G|--7/8\7----------5-55--44-|--7/8\7----------5-55---------------------------|
D|--5/6\5---5-55---3-33--22-|--5/6\5---5-55---3-33---66----------------------|
A|----------3-33------------|----------3-33----------44----------------------|

D|---------------------------------------------------------------------------|
A|---------------------------------------------------------------------------|
F|---------------------------------------------------------------------------|
C|---------------------------------------------------------------------------|
G|--7/8\7---4/5\4---7/8\7---4/5\4--------------------------------------------|
D|--5/6\5---2/3\2---5/6\5---2/3\2--------------------------------------------|
A|---------------------------------------------------------------------------|

D|---------------------------------------------------------------------------|
A|---------------------------------------------------------------------------|
F|---------------------------------------------------------------------------|
C|--7-7--7-8-7-8\5-5--5-7-5-7\4-4--4-5-4-5\3-3--2-2-2------------------------|
G|---------------------------------------------------------------------------|
D|---------------------------------------------------------------------------|
A|---------------------------------------------------------------------------|
Добавлено: 29.03.2012
Другие материалы по этой песне:
  • Аккорды и текст

Страница создана 07.03.2012
http://primanota.ru/korn/the-past-chords.htm
Привет, Гость.
Предлагаем пройти революционный курс по гитаре.
Подарок от PrimaNota.Ru, забирай!