PrimaNota.ru - самый крупный в мире бесплатный архив песенных текстов, аккордов, табулатур и нот


Korn - Trapped Underneath The Stairs - текст песни, таба, видео

Регистрация Запомнить меня
Войти через:  Facebook Google Twitter Vk Yandex Mail.ru

Korn - Trapped Underneath The Stairs - текст песни, таба, видео

Печатать
Просмотров: 147
Korn - Korn III: Remember Who You Are - Trapped Underneath The Stairs

Tabbed By: FRr3AkOnALEaSh (smokin_05@hotmail.com)
Tuning: 7 String Tuned Low to High (A D G C F a d)

Vocal: Jonathan Houseman Davis 'Hiv'
Guitar: James Randal Shaffer 'Munky'
Bass: Reginald Arvizu 'Fieldy
Drums: Ray Luzier

Riff 1 (Intro/Verse)
D|----------|------|
A|------11--|------|
F|------16--|------| Then slide up & down 
C|----------|--12--| the strings using your
G|----------|------| palm down near the 
D|----------|------| bridge pickup position.
A|--0-0-----|------|
    . .      PM

Riff 2 (Pre-Chorus)
D|-----------------------|
A|-----------------------|
F|-----------------------|
C|-----------------------|
G|--2222-3333-4444-5555--|
D|-----------------------|
A|-----------------------|

Riff 3 (Chorus/Outro)
D|-------------------------------|
A|-------------------------------|
F|-------------------------------|
C|-------------------------------|
G|-------------------------------|
D|-------------------------------|
A|--0-12-0-12-0-12-0--1111-2222--|

Riff 4 (Breakdown)
D|--------------------------------------------------|---------------|
A|--------------------------------------------------|---------------|
F|-------12121211-------151515-------12121211-------|--12/13-12/13--|
C|-------xxxxxxxx-------xxxxxx-------xxxxxx-x-------|---------------|
G|-------101010-9-------131313-------101010-9-------|---------------|
D|--0-0------------0-0----------0-0------------0-0--|---------------|
A|--------------------------------------------------|---------------|

Riff 5 (Breakdown)
D|--------------------------------|
A|--------------------------------|
F|--------------------------------|
C|--------------------------------|
G|--------------------------------|
D|-2-8-7-5--------2-8-5-5---------|
A|-0-6-5-3--3131--0-6-3-3--35323--|
   . . . .  ....  . . . .  .....   PM

Riff 6 (Breakdown)
D|----------------------------------------------------------|
A|----------------------------------------------------------|
F|-------15151515-------12121211-------15151515-------7777--|
C|-------xxxxxxxx-------xxxxxx-x-------xxxxxxxx-------xxxx--|
G|-------13131313-------101010-9-------13131313-------5555--|
D|--0-0------------0-0------------0-0------------0-0--------|
A|----------------------------------------------------------|

NOTE: Listen to the song to structure out each riff.
Добавлено: 09.07.2012
Другие материалы по этой песне:
  • Аккорды и текст

Страница создана 09.07.2012
http://primanota.ru/korn/trapped-underneath-the-stairs-chords.htm
Привет, Гость.
Предлагаем пройти революционный курс по гитаре.
Подарок от PrimaNota.Ru, забирай!