PrimaNota.ru - самый крупный в мире бесплатный архив песенных текстов, аккордов, табулатур и нот


Korn - Uber-time - текст песни, таба, видео

Регистрация Запомнить меня
Войти через:  Facebook Google Twitter Vk Yandex Mail.ru

Korn - Uber-time - текст песни, таба, видео

Печатать
Просмотров: 163
KoRn - Uber-Time - KoRn III Remember Who You Are

Tabbed by Elvisz (elvisz84@yahoo.com)
Tuning : 7 String Tuned Low to High (A D G C F a d)

Vocal: Jonathan Houseman Davis
Guitar: James Randal Shaffer 'Munky'
Bass: Reginald Arvizu 'Fieldy'
Drums: Ray Luzier

(Guitar1)
d|--------------------------------|
a|---------12~~-------------------|
F|-----------------------11~12r11-|
C|-----14-------------12----------|
G|--------------------------------|
D|-12~(12)~(12)---10~(10)~~(10)~~-| () echo sounds
A|--------------------------------|
    .              .                 .palm mute


d|--------------------------------|
a|---------12~~----------^^-------| ^^tremolo
F|-----------------------11~12r11-|
C|-----14-------------12----------|
G|--------------------------------|
D|-12~(12)~(12)---10~(10)~~(10)~~-| () echo sounds
A|--------------------------------|
    .              .                 .palm mute


d|--------------------------------|
a|---------12~~-------------------|
F|-----------------------11~12----|
C|-----14-------------12----------|
G|--------------------------------|
D|-12~(12)~(12)---10~(10)~~(10)~~-| () echo sounds
A|--------------------------------|
    .              .                 .palm mute


d|--------------------------------|
a|---------12~~-------------------|
F|-----------------------11~12----|
C|-----14-------------12----------|
G|--------------------------------|
D|-12~(12)~(12)---10~(10)~~(10)~~-| () echo sounds
A|--------------------------------|
    .              .                 .palm mute


d|-----------------------------------|
a|--------12----12-------------------|
F|-------------------------11~12-----|
C|-----14----14---------12-----------|
G|-----------------------------------|
D|-12~(12)~(12)------10~(10)~~(10)~~-| () echo sounds
A|-----------------------------------|
    .              .                 .palm mute


d|---------------------------------|
a|----8~9~~11~12------9~9~8~12~12~-|
F|---------------------------------|
C|---------------------------------|
G|---------------------------------|
D|-7~~(7)~~(7)~~~---7~~(7)~~(7)~~~-|  ()echo sounds
A|---------------------------------|
   .                .                 .palm mute

(Guitar2)at the last notes
d|-----------------------------------------|
a|-12~~12~~---14~~-14~~--16~~-16~~-14~-16~-|
F|-----------------------------------------|
C|-----------------------------------------|
G|-----------------------------------------|
D|-----------------------------------------|
A|-----------------------------------------|
Добавлено: 14.05.2012
Другие материалы по этой песне:
  • Аккорды и текст

Страница создана 14.05.2012
http://primanota.ru/korn/uber-time-chords.htm
Привет, Гость.
Предлагаем пройти революционный курс по гитаре.
Подарок от PrimaNota.Ru, забирай!