PrimaNota.ru - самый крупный в мире бесплатный архив песенных текстов, аккордов, табулатур и нот


Korn - Move On - текст песни, таба, видео

Регистрация Запомнить меня
Войти через:  Facebook Google Twitter Vk Yandex Mail.ru

Korn - Move On - текст песни, таба, видео

Печатать
Просмотров: 237
Уроки эстрадного вокала в Санкт-Петербурге
Korn - Korn III: Remember Who You Are - Move On

Tabbed By: FRr3AkOnALEaSh (smokin_05@hotmail.com)
Tuning: 7 String Tuned Low to High (A D G C F a d)

Vocal: Jonathan Houseman Davis 'Hiv'
Guitar: James Randal Shaffer 'Munky'
Bass: Reginald Arvizu 'Fieldy
Drums: Ray Luzier

Riff 1 (Intro/Chorus)(Guitar 1)
D|--------------------|--------------------|
A|--------------------|--------------------|
F|--------------------|--------------------|
C|--------------------|--------------------|
G|--------------------|--------------------|
D|--------------------|--------------------|
A|--0h2-2-0222-2h3-0--|--3p2-2-0222-2h3-0--|

Riff 2 (Intro/Chorus)(Guitar 1)
D|-------------------|
A|-------------------|
F|-------------------|
C|-------------------|
G|-------------------|
D|-------------------|
A|--3p2-2-0222-55-7--|

Riff 3 (Verse)(Guitar 1)
D|------------|----------------|
A|------------|----------------|
F|------------|----------------|
C|------------|----------------|
G|------------|----------------|
D|------------|-------3--------|
A|--22-33-11--|--22-2---33-11--|
    .. .. ..     ..     .. ..   PM

Riff 4 (Verse)(Guitar 1)
D|------------------------------|
A|------------------------------|
F|------------------------------|
C|------------------------------|
G|------------------------------|
D|------------------------------|
A|--222-2--333-3--222-2--111-1--|   
        .      .      .      .   PM

Riff 4 (Verse)(Guitar 2)
D|---------|---------|
A|--11111--|---------|
F|---------|--33333--|
C|---------|---------|
G|---------|---------|
D|---------|---------|
A|---------|---------|

Riff 5 (Chorus)(Guitar 2)
D|--9999999999999999--|--77777777777777777777777777777777--|
A|--------------------|------------------------------------|
F|--------------------|------------------------------------|
C|--------------------|------------------------------------|
G|--------------------|------------------------------------|
D|--------------------|------------------------------------|
A|--------------------|------------------------------------|

Riff 6 (Chorus)(Guitar 2)
D|--66666666--|--2222-1111--|
A|------------|-------------|
F|------------|-------------|
C|------------|-------------|
G|------------|-------------|
D|------------|-------------|
A|------------|-------------|

Riff 7 (Pre-Verse/Fill)(Guitar 1)
D|------------------------------------|-----------|
A|--121212121212-131313131313-777777--|--8-7------|
F|------------------------------------|------7-9--|
C|------------------------------------|-----------|
G|------------------------------------|-----------|
D|------------------------------------|-----------|
A|------------------------------------|-----------|

Riff 8 (Pre-Verse/Fill)(Guitar 1)
D|------------------------------------|--------|
A|--121212121212-131313131313-777777--|-8-7----|
F|------------------------------------|-----7~-|
C|------------------------------------|--------|
G|------------------------------------|--------|
D|------------------------------------|--------|
A|------------------------------------|--------|

Riff 9 (Breakdown/Outro)
D|-----------------------|---------|
A|-----------------------|---------|
F|--1212121212121212-10--|---------|
C|--xxxxxxxxxxxxxxxx-xx--|---------|
G|--1010101010101010--9--|---------|
D|-----------------------|---------|
A|-----------------------|--0-4-5--|
                            . . .   PM

Riff 10 (Breakdown)(Guitar 1)
D|----------------------|----------------------|
A|----------------------|----------------------|
F|----------------------|----------------------|
C|----------------------|----------------------|
G|----------------------|----------------------|
D|----------------------|----------------------|
A|--3-6--3-6--3-6--3-6--|--2-5--2-5--1-3--1-3--|
    . .  . .  . .  . .     . .  . .  . .  . .   PM

Riff 11 (Breakdown)(Guitar 2)
D|--------------------------|--------------------------|
A|--------------------------|--------------------------|
F|--------------------------|--------------------------|
C|----33----33----33----33--|----22----22----00----00--|
G|--5-----5-----5-----5-----|--4-----4-----3-----3-----|
D|--------------------------|--------------------------|
A|--------------------------|--------------------------|

Riff 12 (Pre-Chorus/Fill)
D|------------------------------------|------------------------------------|
A|------------------------------------|------------------------------------|
F|--12121212121212121212121212121212--|--15151515151515151515151515151515--|
C|--xxxxxxxxxxxxxxxxxxxxxxxxxxxxxxxx--|--xxxxxxxxxxxxxxxxxxxxxxxxxxxxxxxx--|
G|--10101010101010101010101010101010--|--13131313131313131313131313131313--|
D|------------------------------------|------------------------------------|
A|------------------------------------|------------------------------------|

NOTE: Listen to the song to structure out each riff.
Добавлено: 27.06.2012
Другие материалы по этой песне:
  • Аккорды и текст

Страница создана 27.06.2012
http://primanota.ru/korn/move-on-chords.htm
Привет, Гость.
Предлагаем пройти революционный курс по гитаре.
Подарок от PrimaNota.Ru, забирай!