PrimaNota.ru - самый крупный в мире бесплатный архив песенных текстов, аккордов, табулатур и нот


Korn - Never Around - текст песни, таба, видео

Регистрация Запомнить меня
Войти через:  Facebook Google Twitter Vk Yandex Mail.ru

Korn - Never Around - текст песни, таба, видео

Печатать
Просмотров: 320
Korn - Korn III: Remember Who You Are - Never Around

Tabbed By: FRr3AkOnALEaSh (smokin_05@hotmail.com)
Tuning: 7 String Tuned Low to High (A D G C F a d)

Vocal: Jonathan Houseman Davis 'Hiv'
Guitar: James Randal Shaffer 'Munky'
Bass: Reginald Arvizu 'Fieldy
Drums: Ray Luzier

Riff 1 (Intro)
D|-------------|
A|-------------|
F|-------------|
C|-------------|
G|-------------|
D|-------------|
A|--22-0-2222--|

Riff 2 (Intro)
D|-------------------|
A|-------------------| Gradually bend up
F|--6-6-6-6-6-6-6-6--|
C|--x-x-x-x-x-x-x-x--|
G|--4-4-4-4-4-4-4-4--|
D|--^-^-^-^-^-^-^-^--|
A|-------------------|

Riff 3 (Intro/Fill)
D|-----------------------------|
A|-----------------------------|
F|--6-6-6-6-6-6-6-6-5-5-5-5-5--|
C|--x-x-x-x-x-x-x-x-x-x-x-x-x--|
G|--4-4-4-4-4-4-4-4-3-3-3-3-3--|
D|-----------------------------|
A|-----------------------------|

Riff 4 (Intro/Chorus)
D|------------------------------|------|
A|------------------------------|------|
F|------------------------------|------|
C|------------------------------|------|
G|------------------------------|------|
D|------------------------------|------|
A|--22-0-2222--7\666--4\333--0--|--22--|
                                   ..
Riff 4 (Verse)(Guitar 1)                
D|-----------------------|
A|-----------------------|
F|-----------------------|
C|------------4444-3333--|
G|--4433-4433------------|
D|-----------------------|
A|-----------------------|

Riff 5 (Verse)(Guitar 2)
D|-------------|-------------|
A|-------------|-------------| A bit hard to hear,
F|-------------|-------------| but it's defiantly 
C|-------------|-------------| there.
G|-------------|------1~-----|
D|--3~--2~-----|--3~---------|
A|----------0~-|----------0~-|

Riff 6 (Verse)(Guitar 1)
D|------------|---------|
A|------------|---------|
F|--5/6~-5/6~-|--10/11~-|
C|------------|---------|
G|------------|---------|
D|------------|---------|
A|------------|---------|

Riff 7 (Verse/Fill)
D|--------------------|
A|--------------------|
F|--------------------|
C|--------------------|
G|--------------------|
D|--------------------|
A|--0-2-3-0--0-2-3-0--|
    . . . .  . . . .   PM

Riff 8 (Pre-Chorus/Fill)
D|--------------------------------------------|------------|
A|--------------------------------------------|------------|
F|--------------------------------------------|------------|
C|--------------------------------------------|------------| 
G|--------------------------------------------|------------|
D|--------------------------------------------|------------|
A|--3-000--3-000--3-000--3-000--3-000--3-000--|--777-6666--|

Riff 9 (Breakdown)
D|-----------------|
A|-----------------|
F|-----------------|
C|-----------------|
G|--8~--8~--8~--8~-|
D|--8~--8~--8~--8~-|
A|--6~--6~--6~--6~-|

Riff 10 (Breakdown)
D|--------------------|
A|--------------------|
F|--------------------|
C|--------------------|
G|--------------------|
D|--------------------|
A|--02-23-02-32-02-3--|
    .. .. .. .. ..     PM

Riff 11 (Breakdown)(Clean Channel)
D|-----------------------|-----------------------|
A|-----------------------|-----------------------|
F|-----------------------|-----------------------|
C|-----------------------|-----------------------|
G|-----------------------|-----------------------|
D|------44-----44----44--|------55-----55----55--|
A|--666----666----66-----|--777----777----77-----|

Riff 12 (Breakdown)
D|-------------------|---------------------|
A|-------------------|---------------------|
F|-------------------|---------------------|
C|--9-9-9-9-9-9-9-9--|--11111111111111111--|
G|--x-x-x-x-x-x-x-x--|--xxxxxxxxxxxxxxxxx--|
D|--7-7-7-7-7-7-7-7--|---9-9-9-9-9-9-9-9---|
A|-------------------|---------------------|

Riff 13 (Breakdown)
D|--------------------|-------------------|
A|--------------------|-------------------|
F|--------------------|-------------------|
C|--1212121212121212--|--8-8-8-8-8-8-8-8--|
G|--xxxxxxxxxxxxxxxx--|--x-x-x-x-x-x-x-x--|
D|--1010101010101010--|--6-6-6-6-6-6-6-6--|
A|--------------------|-------------------|

Riff 14 (Outro)(Clean Channel)
D|--------------|-----------------|
A|--------------|-----------------|
F|--------------|-----------------|
C|--------------|-----------------|
G|-----4--------|------4---4/7-4--|
D|-454---454----|--454---4--------|
A|-----------2--|-----------------|

NOTE: Listen to the song to structure out each riff.
Добавлено: 28.04.2012
Другие материалы по этой песне:
  • Аккорды и текст

Страница создана 28.04.2012
http://primanota.ru/korn/never-around-chords.htm
Привет, Гость.
Предлагаем пройти революционный курс по гитаре.
Подарок от PrimaNota.Ru, забирай!