PrimaNota.ru - самый крупный в мире бесплатный архив песенных текстов, аккордов, табулатур и нот


Korn - People Pleaser - текст песни, таба, видео

Регистрация Запомнить меня
Войти через:  Facebook Google Twitter Vk Yandex Mail.ru

Korn - People Pleaser - текст песни, таба, видео

Печатать
Просмотров: 187
Korn - Korn III: Remember Who You Are - People Pleaser

Tabbed By: FRr3AkOnALEaSh (smokin_05@hotmail.com)
Tuning: 7 String Tuned Low to High (A D G C F a d)

Vocal: Jonathan Houseman Davis 'Hiv'
Guitar: James Randal Shaffer 'Munky'
Bass: Reginald Arvizu 'Fieldy
Drums: Ray Luzier

Riff 1 (Intro/Chorus)(Guitar 1)
D|------------------|------------------|
A|------------------|------------------|
F|------------------|------------------|
C|------------------|------------------|
G|------------------|------------------|
D|------------------|------------------|
A|--2-2-2-0h2-22-0--|--3-3-3-0h3-33-0--|

Riff 2 (Verse)(Guitar 2)
D|--14h15-14h15-14h15-14h15--|
A|---------------------------|
F|---------------------------|
C|---------------------------|
G|---------------------------|
D|---------------------------|
A|---------------------------|

Riff 3 (Verse)(Guitar 1)
D|-----------|
A|-----------|
F|-----------|
C|-----------|
G|-----------|
D|--2-22-22--|
A|--0-00-00--|

Riff 4 (Verse)(Guitar 2)
D|--14h15-14h15-14h15-14h15--|---------------------------|
A|---------------------------|---------------------------|
F|---------------------------|--11h12-11h12-11h12-11h12--|
C|---------------------------|---------------------------|
G|---------------------------|---------------------------|
D|---------------------------|---------------------------|
A|---------------------------|---------------------------|

Riff 5 (Verse)(Guitar 1)
D|-----------|-----------|-----------|------------| I tend to get the best
A|-----------|-----------|-----------|------------| matching sound using
F|-----------|-----------|-----------|------------| a drive channel.
C|-----------|-----------|-----------|------------|
G|-----5-54--|--2-24-45--|--4-45-5---|------------|
D|--2-23-32--|--0-02-23--|--2-23-36--|--6-65-542--|
A|--0-0------|-----------|--------4--|--4-43-320--|

Riff 6 (Bridge)(Guitar 1)
D|------------------------|
A|------------------------|
F|-----11~-----9~-----6~--|
C|---10------10------9----|
G|--9-------9-------9-----|
D|------------------------|
A|------------------------|

Riff 7 (Bridge)(Guitar 1)
D|---------------------------------|
A|---------------------------------|
F|---------11~---------------------|
C|---------10~---------------------|
G|----2-----9~-----2------------2--|
D|--2-2----------2-2---2-2------2--|
A|--0-0----------0-0---0-0--2^--0--|
    .            .     .            PM

Riff 8 (Bridge)(Guitar 2)
D|------------------|-------| Multiple patterns done
A|---15~--14~--12~--|-------| with these notes as riff
F|------------------|--10~--| 7 is playing. Just listen
C|------------------|-------| and I'm sure you'll figure
G|------------------|-------| it out.
D|------------------|-------|
A|------------------|-------|

Riff 9 (Fill)(Guitar 2)
D|-----------| 
A|-----------| Played at 3:07
F|--7-7-7-7--| when Riff 5 plays
C|-----------| over again.
G|-----------|
D|-----------|
A|-----------|

Riff 10 (Outro 1)(Guitar 1)
D|----------------|
A|----------------| Scratch you're pick
F|----------------| a bit on the low B
C|----------------| string before following
G|--2~---2~---2~--| through with the chord
D|--2~---2~---2~--| to add to how it's played.
A|--0~---0~---0~--|
    .    .    .    PM 

Riff 11 (Outro 2)(G1 or G2)
D|-------------------|
A|-------------------| This is the little 
F|-------------------| bit that's played
C|-------------------| over for the remaining
G|----0-----0-----0--| 3 minutes 5 seconds,
D|--0---0-0---0-0----| use clean channel.
A|-------------------|
    . . . . . . . .   PM

NOTE: Listen to the song to structure out each riff
Добавлено: 02.07.2012
Другие материалы по этой песне:
  • Аккорды и текст

Страница создана 02.07.2012
http://primanota.ru/korn/people-pleaser-chords.htm
Привет, Гость.
Предлагаем пройти революционный курс по гитаре.
Подарок от PrimaNota.Ru, забирай!