PrimaNota.ru - самый крупный в мире бесплатный архив песенных текстов, аккордов, табулатур и нот


Korn - Lullaby For A Sadist - текст песни, таба, видео

Регистрация Запомнить меня
Войти через:  Facebook Google Twitter Vk Yandex Mail.ru

Korn - Lullaby For A Sadist - текст песни, таба, видео

Печатать
Просмотров: 637
-------------------------------------------------------------------------------
                             LULLABY FOR A SADIST - Korn
-------------------------------------------------------------------------------
Tabbed by: FRr3AkOnALEaSh
E-mail: smokin_05@hotmail.com

Tuning: B Standard (7-String) B E A D G B E

~ - Let ring out until next note
^ - Bend up

PLEASE NOTE: From what I've seen from studio previews
of Munky playing this song, it appears this is in Standard
B Tuning. This also makes this song slightly easier and
more fluid to play, but if you'd prefer to play this in
Korn's A Standard tuning then just play everything 2 frets
higher.

~ CHECK THE BOTTOM OF THE PAGE FOR STRUCTURE ~


Riff 1 (Intro/verse)
E|-----------|-----------|-----------|-----------|
B|-----------|-----------|-----------|-----------|
G|-----------|-----------|-----------|-----------|
D|------4----|-----------|-----------|-----------|
A|----2---2--|----2-0-2--|----4-0-4--|----2-0-2--|
E|-----------|-----------|--2--------|--0--------|
B|--0--------|--0--------|-----------|-----------|

Riff 2 (Verse)
E|-----------|-----------|-----------|-----------|
B|-----------|-----------|-----------|-----------|
G|-----------|-----------|-----------|-----------|
D|------4----|-----------|-----------|-----------|
A|----2---2--|----2-0-2--|----4-0-4--|----2-0----|
E|-----------|-----------|--2--------|--0-----^--|
B|--0--------|--0--------|-----------|--------3--|

Riff 3 (Verse)
E|----------|------------|---------|------------|
B|----------|------------|---------|------------|
G|----------|------------|---------|------------|
D|----------|------------|---------|------------|
A|----------|------------|---------|------------|
E|--4~-4~4--|--5~5~5~5~--|--3~-3~--|--3~3~3~3~--|
B|--2~-2~2--|--3~3~3~3~--|--1~-1~--|--1~1~1~1~--|

Riff 4 (Pre-verse)
E|-----|-------------|-------|---------|
B|-----|-------------|-------|---------|
G|-----|-------------|-------|---------|
D|-----|-------------|-------|---------|
A|-----|-------------|-------|---------|
E|-----|------5------|-------|--7------|
B|--0--|--0-0---0-0--|--0-0--|----0-0--|

Riff 5 (Pre-Verse)
E|-----|-------------|-------|
B|-----|-------------|-------|
G|-----|-------------|-------|
D|-----|-------------|-------|
A|-----|-------------|-------|
E|-----|------5------|-------|
B|--0--|--0-0---0-0--|--0-0--|

Riff 6 (Chorus) Guitar 1
E|------|------|-------|NOTE: Skip to 3:27 in
B|------|------|-------|the song to see how this
G|--8~--|------|-------|part is played for the
D|--9~--|------|-------|chorus. This style applies
A|--6~--|--9~--|--10~--|for both the chorus and clean
E|--7~--|--9~--|--10~--|bridge part.
B|------|--7~--|---8~--|\
                         |PLAYED
Riff 7 (Chorus) Guitar 2 |TOGETHER
E|--------|-----------| /
B|----7~--|----7~-6~--|
G|--4~----|--2~-------|
D|--------|-----------|
A|--------|-----------|
E|--------|-----------|
B|--------|-----------|

Riff 8 (Chorus)
E|------|---------|---------|
B|------|---------|---------|
G|--8~--|---------|---------|
D|--9~--|---------|---------|
A|--6~--|--9~-9~--|--7~-7~--|
E|--7~--|--9~-9~--|--7~-7~--|
B|------|--7~-7~--|--5~-5~--|

Riff 9 (Pre-Verse 2)
E|-----------|-----------|-------------|
B|-----------|-----------|-------------|
G|-----------|-----------|-------------|
D|----1-2-1--|-----------|-------------|
A|--2--------|--0-4-5-4--|----2-0-2----|
E|-----------|-----------|--3-------3--|
B|-----------|-----------|-------------|

Riff 10 (Bridge)
E|------|    |------|They're using an pedal to get
B|------|    |------|that whammy effect that goes up and down
G|------|    |------|an octave. You could simulate it by using
D|------|    |------|the A string on the 2nd fret then open
A|--2~--| or |--2---|on the B string back and forth (an octave
E|--2~--|    |------|apart) same applies to the rest of the bridge
B|--0~--|    |---0--|that uses this effect.

Riff 11 (Bridge) Guitar 1
E|------|---------|------|------|
B|------|---------|------|------|
G|------|---------|------|------|
D|------|---------|------|------|
A|--2~--|--4~-5~--|--9~--|--8~--|
E|--2~--|--4~-5~--|--9~--|--8~--|
B|--0~--|--2~-3~--|--7~--|--6~--| \
                                   |PLAYED
Riff 12 (Bridge) Guitar 2          |TOGETHER
E|------|---------|------|------| /
B|------|---------|------|------|
G|------|---------|------|------|I'm pretty sure you can
D|--4~--|--6~-7~--|------|------|hear this part around 3:02.
A|--2~--|--4~-5~--|--4~--|--3~--|
E|------|---------|--2~--|--1~--|
B|------|---------|------|------|

Riff 13 (Outro)
E|------|
B|------|The finishing riff that
G|--8~--|holds until the song
D|--9~--|finishes.
A|--6~--|
E|--7~--|
B|------|

~~~~~~~~~~~~~~~~~~~~~~~~~~~~~~~~~~~~~~~~~~~~~~~~~~~~~~~~

STRUCTURE:

0:00 - 0:18 = Riff 1
0:18 - 0:24 = Riff 2
0:24 - 0:31 = Riff 1
0:31 - 0:37 = Riff 3
0:37 - 0:46 = Riff 4
0:46 - 0:49 = Riff 5
0:50 - 1:08 = Riff 6 & 7
1:08 - 1:15 = Riff 8
1:15 - 1:21 = Riff 9
1:21 - 1:27 = Riff 1
1:27 - 1:33 = Riff 2
1:34 - 1:40 = Riff 1
1:40 - 1:46 = Riff 3
1:46 - 1:55 = Riff 4
1:56 - 1:58 = Riff 5
1:59 - 2:17 = Riff 6 & 7
2:18 - 2:24 = Riff 8
2:24 - 2:36 = Riff 10
2:37 - 3:02 = Riff 11
3:02 - 3:27 = Riff 11 & 12
3:27 - 3:39 = Riff 6
3:39 - 3:58 = Riff 6 & 7
3:58 - 4:04 = Riff 8
4:04 - END  = Riff 13

~~~~~~~~~~~~~~~~~~~~~~~~~~~~~~~~~~~~~~~~~~~~~~~~~~~~~~~~

If you think this tab is accurate, don't forget to give
it a good rating (It helps a lot!) leave any comments
or corrections in the comments below and check out my
profile for many more korn tabs from the Paradigm Shift.
Enjoy! =)
Добавлено: 16.12.2013
Другие материалы по этой песне:

Страница создана 16.12.2013
http://primanota.ru/korn/lullaby-for-a-sadist-chords.htm
Привет, Гость.
Предлагаем пройти революционный курс по гитаре.
Подарок от PrimaNota.Ru, забирай!