PrimaNota.ru - самый крупный в мире бесплатный архив песенных текстов, аккордов, табулатур и нот


Korn - Paranoid And Aroused - таба, видео

Регистрация Запомнить меня
Войти через:  Facebook Google Twitter Vk Yandex Mail.ru

Korn - Paranoid And Aroused - таба, видео

Печатать
Просмотров: 162
-------------------------------------------------------------------------------
                             PARANOID AND AROUSED - Korn
-------------------------------------------------------------------------------
Tabbed by: FRr3AKOnALEaSh
E-mail: smokin_05@hotmail.com

Tuning: A Standard (7 String) A D G C F a d

^ = Bend-Up
~ = Note is held

~ CHECK THE BOTTOM OF THE PAGE FOR STRUCTURE ~

Riff 1 (Intro/Chorus)
d|--------------|------------------|
a|--13~---------|--13~-------------| Plays in Intro and as
F|------16~-----|------16~---------| Guitar 2 behind the Chorus.
C|--------------|----------16~-----|
G|--------------|------------------|
D|--------------|------------------| __________________________
A|----------{x2}|--------------{x2}|                            \
                                                                 |PLAYED TOGETHER
Riff 2 (Intro/Chorus)                                            |IN CHORUS
d|--------------|--------------|---------------------------| /
a|--------------|--------------|---------------------------|
F|--------------|--------------|---------------------------|
C|--------------|--------------|---------------------------|
G|--7-----7-----|--7-----7-----|--7-----5-----7-----5------|
D|--------------|--------------|---------------------------|
A|---6-6---6-6--|---5-5---5-5--|---3-3---3-3---3-3---3-3---|

Riff 3 (Verse) Guitar 2
d|-------------|----------------|
a|-------------|----------------|
F|-------------|----------------|
C|-------------|----------------|
G|--5----------|----5-----------|
D|-------------|----------------| __________________
A|---3-0~--{x1}|--0--3-0~--{x14}|                    \
                  .              .Palm-Mute           |PLAYED
Riff 4 (Verse) Guitar 2                               |TOGETHER
d|------------|------------|-----------|-----------| /
a|--8-8-8-10--|--9-9-9-10--|--5-5-5-5--|--3-3-3-0--|
F|------------|------------|-----------|-----------|
C|------------|------------|-----------|-----------|
G|------------|------------|-----------|-----------|
D|------------|------------|-----------|-----------|
A|------------|------------|-----------|-----------|

Riff 5 (Verse)
d|-----------|------|-----------|
a|-----------|------|-----------|
F|-----------|------|-----------|
C|-----------|------|-----------|
G|-----------|--^---|-----------|
D|--77-7-77--|--9~--|--77-7-77--|
A|--55-5-55--|--7~--|--55-5-55--|

Riff 6 (Pre-Chorus)
d|------------------|------------------|
a|--13~-12~---------|--15~-13~-12~-----|
F|----------12~-----|------------------|
C|------------------|------------------|
G|------------------|------------------|
D|------------------|------------------|
A|--------------{x4}|--------------{x2}|

Riff 7 (Bridge)
d|----------------------------------------|
a|----------------------------------------|
F|----------------------------------------|
C|----------------------------------------|
G|----------------------------------------|
D|----------------------------------------|
A|--0--13-10-0-10-12--0--10-0-10-0-10-12--|

Riff 8 (Bridge)
d|------------------------------------|
a|------------------------------------|
F|------------------------------------|
C|------------------------------------|
G|------------------------------------|
D|---------------------------------7--|
A|--0--13-10-0-10-12--0--8-0-8-0-8----|

Riff 9 (Bridge)
d|--------------------------------|
a|--------------------------------|
F|--------------------------------|
C|--------------------------------|
G|--------------------------------|
D|-----------------------------8--|
A|--0--13-10-0-10-12--0--8-0-8-0--|

Riff 10 (Outro)
d|-------------|--------------|
a|-------------|--------------|
F|-------------|--------------|
C|--2---2------|---2---2------|
G|-------------|--------------|
D|-------------|--------------|
A|---0-0---{x1}|--0-00----{x6}|

Riff 11 (Outro)
d|-----------|
a|-----------|
F|-------0~--|
C|-------4~--|
G|---2---3~--|
D|-----------|
A|--0-000----|
       ..

~~~~~~~~~~~~~~~~~~~~~~~~~~~~~~~~~~~~~~~~~~~~~~~~~~

STRUCTURE:


~ INTRO ~

0:00 - 0:09 = Riff 1
0:10 - 0:30 = Riff 1 & 2

~ VERSE 1 ~

0:30 - 0:51 = Riff 3 & 4
0:51 - 0:55 = Riff 5
0:55 - 0:59 = Riff 6

~ CHORUS 1 ~

0:59 - 1:19 = Riff 1 & 2

~ VERSE 2 ~

1:19 - 1:40 = Riff 3 & 4
1:40 - 1:44 = Riff 5
1:44 - 1:48 = Riff 6

~ CHORUS 2 ~

1:48 - 2:08 = Riff 1 & 2

~ BRIDGE ~

2:09 - 2:37 = Riff 7 & 8
2:37 - 2:44 = Riff 9

~ CHORUS ~

2:44 - 3:04 = Riff 1 & 2

~ OUTRO ~

3:04 - 3:13 = Riff 10
3:13 - END  = Riff 11

~~~~~~~~~~~~~~~~~~~~~~~~~~~~~~~~~~~~~~~~~~~~~~~~~~

If you think this tab is accurate, don't forget to give
it a good rating (It helps a lot!) leave any questions
or corrections in the comments below and check out my
profile for many more korn tabs from the Paradigm Shift.
Enjoy! =)
Добавлено: 25.11.2013
Другие материалы по этой песне:

Страница создана 25.11.2013
http://primanota.ru/korn/paranoid-and-aroused-chords.htm
Привет, Гость.
Предлагаем пройти революционный курс по гитаре.
Подарок от PrimaNota.Ru, забирай!