PrimaNota.ru - самый крупный в мире бесплатный архив песенных текстов, аккордов, табулатур и нот


Korn - Prey For Me - таба, видео

Регистрация Запомнить меня
Войти через:  Facebook Google Twitter Vk Yandex Mail.ru

Korn - Prey For Me - таба, видео

Печатать
Просмотров: 230
-------------------------------------------------------------------------------
                             PREY FOR ME - Korn
-------------------------------------------------------------------------------
Tabbed by: FRr3AKOnALEaSh
E-mail: smokin_05@hotmail.com

Tuning: A Standard (7 String) A D G C F a d

h = Hammer-down
~ = Note is held
\ = Slide-down

~ CHECK THE BOTTOM OF THE PAGE FOR STRUCTURE ~

Riff 1 (Intro/Bridge)
d|------------------------------------------|
a|------------------------------------------|
F|------------------------------------------|
C|------------------------------------------|
G|--------------------------------4---------|
D|--------------------------------3---------|
A|--022--022--322--022--022--022----2--022--| <- 2's

Riff 2 (Intro)
d|------------------------------------|
a|------------------------------------|
F|------------------------------------|
C|------------------------------------|
G|--------------------------------4~--|
D|--------------------------------3~--|
A|--022--022--322--022--022--022------| <- 2's

Riff 3 (Intro)
d|------------------------------------------|
a|------------------------------------------|
F|------------------------------------------|
C|------------------------------------------|
G|--------------------------------3---------|
D|--------------------------------2---------|
A|--022--022--322--022--022--022----2--022--| <- 2's

Riff 4 (Intro)
d|----------------------------------------|
a|----------------------------------------|
F|----------------------------------------|
C|--------------------------------4~4~4~--|
G|--------------------------------3~3~3~--|
D|--------------------------------2~2~2~--|
A|--022--022--322--022--022--022--1~1~1~--| <- 2's

Riff 5 (Verse1) Guitar 1
d|-----------|--------|
a|-----------|--------| 
F|-----------|--------| 
C|-----------|--------| 
G|--2h44-----|----7~--| 
D|-----------|--------| 
A|-------{x3}|--3~----| \
                         |PLAYED
Riff 6 (Verse1) Guitar 2 |TOGETHER    Riff 7 (Verse2) Guitar 2
d|--------------------| /             |--17~16~-----14~16~--|
a|-----------12~------|               |----------15~--------|
F|--13~--14~----------| Replace Riff  |---------------------|
C|--------------------| 6 with 7 in   |---------------------|
G|--------------------| the 2nd verse |---------------------|
D|--------------------|               |---------------------|
A|--------------------|               |---------------------|

Riff 8 (Verse1) Guitar 1
d|-----------|---------|
a|-----------|---------| 
F|-----------|---------| 
C|-----------|---------| 
G|--2h44-----|---------| 
D|-----------|---------| 
A|-------{x3}|--3~-0~--| \
                          |PLAYED
Riff 9 (Verse1) Guitar 2  |TOGETHER    Riff 10 (Verse2) Guitar 2
d|---------------------| /             |--17~16~-----16~14~--|
a|---------------------|               |----------15~--------|
F|--13~--14~-11~-------| Replace Riff  |---------------------|
C|---------------------| 9 with 10 in  |---------------------|
G|---------------------| the 2nd verse |---------------------|
D|---------------------|               |---------------------|
A|---------------------|               |---------------------|

Riff 11 (Verse1) Guitar 1
d|-----------|--------| 
a|-----------|--------| 
F|-----------|--------| 
C|-----------|--------| 
G|--2h44-----|----7~--| 
D|-----------|--------| 
A|-------{x3}|--3~----| \
                         |PLAYED
Riff 12 (Verse1) Guitar 2|TOGETHER    Riff 13 (Verse2) Guitar 2
d|--------------------| /             |--17~16~-----14~16~--|
a|-----------14~------|               |----------15~--------|
F|--13~--14~----------| Replace Riff  |---------------------|
C|--------------------| 12 with 13 in |---------------------|
G|--------------------| the 2nd verse |---------------------|
D|--------------------|               |---------------------|
A|--------------------|               |---------------------|

Riff 14 (Verse1) Guitar 1
d|-----------|---------| 
a|-----------|---------| 
F|-----------|---------|
C|-----------|---------| 
G|--2h44-----|---------| 
D|-----------|---------| 
A|-------{x3}|--3~-0~--| \
                          |PLAYED
Riff 15 (Verse1) Guitar 2 |TOGETHER    Riff 16 (Verse2) Guitar 2
d|---------------------| /             |--17~16~-----16~14~--|
a|---------------------|               |----------15~--------|
F|--13~--14~-----------| Replace Riff  |---------------------|
C|-----------11~-------| 15 with 16 in |---------------------|
G|---------------------| the 2nd verse |---------------------|
D|---------------------|               |---------------------|
A|---------------------|               |---------------------|

Riff 17 (Verse1) Guitar 1
d|-----------|---------| 
a|-----------|---------| 
F|-----------|---------|
C|-----------|---------| 
G|--2h44-----|---------| 
D|-----------|---------| 
A|-------{x3}|--3~-0~--| \
                          |PLAYED
Riff 18 (Verse1) Guitar 2 |TOGETHER    Riff 19 (Verse2) Guitar 2
d|---------------------| /             |--17~16~-----14~16~--|
a|---------------------|               |----------15~--------|
F|--13~--14~-----------| Replace Riff  |---------------------|
C|-----------11~-------| 18 with 19 in |---------------------|
G|---------------------| the 2nd verse |---------------------|
D|---------------------|               |---------------------|
A|---------------------|               |---------------------|

Riff 20 (Chorus) Guitar 1
d|------|------|------|------|------|
a|------|------|------|------|------|
F|------|------|------|------|------|
C|------|--6~--|------|--6~--|------|
G|------|--7~--|------|--7~--|------|
D|--4~--|--5~--|--2~--|--5~--|--5~--| 
A|--2~--|------|--0~--|------|--3~--| \
                                       |PLAYED
Riff 21 (Chorus) Guitar 2              |TOGETHER
d|----------------------------------| /
a|--------9~------------9~----------| 
F|--9~-6~----9~11~8~-4~----9~11~9~--| 
C|----------------------------------| 
G|----------------------------------| 
D|----------------------------------| 
A|----------------------------------|

Riff 22 (Chorus) Guitar 1
d|------|------|------|------|------|
a|------|------|------|------|------|
F|------|------|------|------|------|
C|------|--6~--|------|--6~--|------|
G|------|--7~--|------|--7~--|------|
D|--4~--|--5~--|--2~--|--5~--|--5~--| 
A|--2~--|------|--0~--|------|--3~--| \
                                       |PLAYED
Riff 23 (Chorus) Guitar 2              |TOGETHER
d|----------------------------------| /
a|--------9~------------9~-7~10~----| 
F|--9~-6~----9~11~8~-4~-------------| 
C|----------------------------------| 
G|----------------------------------| 
D|----------------------------------| 
A|----------------------------------|

Riff 24 (Bridge)
d|------------|------|
a|------------|------|
F|--14\13-----|--11--|
C|------------|------|
G|--12\11-----|---9--|
D|------------|------|
A|--------{x3}|------|

Riff 25 (Bridge)
d|--------------------------------------------------|
a|--------------------------------------------------|
F|--14\13-14\13-14\13-14\13-14\13-14\13-14\13-14\13-|
C|--------------------------------------------------|
G|--12\11-12\11-12\11-12\11-12\11-12\11-12\11-12\11-|
D|--------------------------------------------------|
A|--------------------------------------------------| \
                                                       | BOTH PARTS
Riff 26 (Bridge)                                       | PLAY TOGETHER
d|--------------------------------------------------| /
a|--------------------------------------------------|
F|--------------------------------------------------|
C|--------------------------------------------------|
G|--------------------------------------------------|
D|--------------------------------------------------|
A|---------------------0~------------------------0--|

Riff 27 (Bridge/Outro) 
d|-----------------------------------------| After riffs 1-2 play in the bridge,
a|-----------------------------------------| It's the same but this time, the 
F|-----------------------------------------| notes are held.
C|-----------------------------------------|
G|-------------------------------4---------|
D|-------------------------------3---------|
A|-022~-022~-322~-022~-022~-022~---2~-022~-| <- 2's

Riff 28 (Bridge)
d|---------------------------------------|
a|---------------------------------------|
F|---------------------------------------|
C|---------------------------------------|
G|-------------------------------4~4~4~--|
D|-------------------------------3~3~3~--|
A|-022~-022~-322~-022~-022~-022~---------| <- 2's

--------------------------------------------------------------------------

STRUCTURE:

~ INTRO ~

0:00 - 0:04 = Riff 1
0:04 - 0:09 = Riff 2
0:09 - 0:13 = Riff 3
0:13 - 0:17 = Riff 4
0:17 - 0:22 = Riff 3
0:22 - 0:27 = Riff 2

~ VERSE 1 ~

0:31 - 0:36 = Riff 5 & 6
0:36 - 0:40 = Riff 8 & 9
0:40 - 0:44 = Riff 11 & 12
0:44 - 0:48 = Riff 14 & 15
0:48 - 0:52 = Riff 17 & 18

~ CHORUS 1 ~

0:52 - 1:01 = Riff 20 & 21
1:01 - 1:09 = Riff 22 & 23

~ VERSE 2 ~

1:14 - 1:18 = Riff 5 & 7
1:18 - 1:22 = Riff 8 & 10
1:22 - 1:26 = Riff 11 & 13
1:26 - 1:31 = Riff 14 & 16
1:31 - 1:35 = Riff 17 & 19

~ CHORUS 2 ~

1:35 - 1:43 = Riff 20 & 21
1:44 - 1:52 = Riff 22 & 23
1:52 - 2:00 = Riff 20 & 21
2:00 - 2:07 = Riff 22 & 23

~ BRIDGE ~

2:07 - 2:09 = Riff 24
2:09 - 2:32 = Riff 25 & 26
2:32 - 2:36 = Riff 1
2:37 - 2:40 = Riff 2
2:41 - 2:45 = Riff 27
2:45 - 2:49 = Riff 28
2:49 - 2:58 = Riff 20
2:58 - 3:06 = Riff 20 & 21
3:06 - 3:15 = Riff 22 & 23
3:15 - 3:23 = Riff 20 & 21
3:23 - END  = Riff 27

--------------------------------------------------------------------------

If you think this tab is accurate, don't forget to give
it a good rating (It helps a lot!) leave any comments
or corrections in the comments below and check out my
profile for many more Korn tabs from the Paradigm Shift.
Enjoy! =)
Добавлено: 20.01.2014
Другие материалы по этой песне:

Страница создана 08.12.2013
http://primanota.ru/korn/prey-for-me-chords.htm
Привет, Гость.
Предлагаем пройти революционный курс по гитаре.
Подарок от PrimaNota.Ru, забирай!