PrimaNota.ru - самый крупный в мире бесплатный архив песенных текстов, аккордов, табулатур и нот


Korn - Live Lick - бас-таба, видео

Регистрация Запомнить меня
Войти через:  Facebook Google Twitter Vk Yandex Mail.ru

Korn - Live Lick - бас-таба, видео

Печатать
Просмотров: 184
Уроки эстрадного вокала в Санкт-Петербурге
Here's a lick Fieldy played live at Montreal in 2004. Enjoy.

Intro (triplets)

F--------16-------16--------19-------14-|
C-----16-------16--------19-------14----|
G--14-------14------/-17-------12-------|
D---------------------------------------|
A---------------------------------------| x8

Bridge

F--------12-------12-------11------11---|
C-----12-------12-------11------11------|
G--10-------10------\-9-------9---------|
D---------------------------------------|
A---------------------------------------| x2

Intro x4
Bridge x2

Bridge #2

F---------------------------------------|
C---------------------------------------|
G--17-------17-------16-------16--------|
D-----13-12----13-12----12-11----12-11--|
A---------------------------------------| x8

Outro

F---------------------------------------|---------------------------------------|
C---------------------------------------|---------------------------------------|
G--17-------16-------15-------14--------|--13-----12----------------------------|
D-----13-12----12-11----11-10----10-9---|-----9-8----8-7------------------------|
A---------------------------------------|----------------7~~~~~~~~~~~~~~~~~~~~~~|
Добавлено: 10.03.2012
Другие материалы по этой песне:
  • Аккорды и текст

Страница создана 10.03.2012
http://primanota.ru/korn/live-lick-chords.htm
Привет, Гость.
Предлагаем пройти революционный курс по гитаре.
Подарок от PrimaNota.Ru, забирай!