PrimaNota.ru - самый крупный в мире бесплатный архив песенных текстов, аккордов, табулатур и нот


Korn - Love And Luxury - текст песни, таба, видео

Регистрация Запомнить меня
Войти через:  Facebook Google Twitter Vk Yandex Mail.ru

Korn - Love And Luxury - текст песни, таба, видео

Печатать
Просмотров: 187
Уроки эстрадного вокала в Санкт-Петербурге
Авторы: Zac Baird, The Matrix, Korn

KoRn - Love And Luxury - Untitled

Tabbed by Elvisz (elvisz84@yahoo.com)
Tuning : 7 String Tuned Low to High (A D G C F a d)

Vocal: Jonathan Houseman Davis 'Hiv'
Guitar: James Randal Shaffer 'Munky'
Bass: Reginald Arvizu 'Fieldy'
Drums: Jonathan Houseman Davis 'Hiv'

Intro:
d|-----------------------------|
a|-----------------------------|
F|-----------------------------|
C|-10--1010-10\99\710--1010-10-|
G|-10--1010-10\99\710--1010-10-|
D|- 8-- 8 8- 8\77\5 8-- 8 8- 8-|
A|-----------------------------|

d|-------------------------------|
a|-------------------------------|
F|-------------------------------|
C|---10--1010-10\99\710--1010-10-|
G|---10--1010-10\99\710--1010-10-|
D|-X- 8-- 8 8- 8\77\5 8-- 8 8- 8-|
A|-X-----------------------------|

Verse:
d|-----------------------------|
a|-----------------------------|
F|-----------------------------|
C|-10--1010-10\99\710--1010-10-|
G|-10--1010-10\99\710--1010-10-|
D|- 8-- 8 8- 8\77\5 8-- 8 8- 8-|
A|-----------------------------|

d|-------------------------------|
a|-------------------------------|
F|-------------------------------|
C|---10--1010-10\99\710--1010-10-|
G|---10--1010-10\99\710--1010-10-|
D|-X- 8-- 8 8- 8\77\5 8-- 8 8- 8-|
A|-X-----------------------------|

Chorus:
(guitar1)
d|-----------------------------------------------------------------|
a|-----------------------------------------------------------------|
F|-----------------------------------------------------------------|
C|-----------------------------------------------------------------|
G|-------7-7-9-9-7-------7-7-9-9-7-------2-2-2-2-2-------4-4-4-4-4-|
D|-9-9-9-----------7-7-7-----------5-5-5-----------7-7-7-----------|
A|-----------------------------------------------------------------|

(guitar2)
d|----------------------------------------------------------|
a|-12-12^(14)'-----12-12^(14)'-----10-10^(12)'----10-9------|
F|-----------------------------------------------------9----|
C|-------------------------------------------------------11-|
G|----------------------------------------------------------|
D|----------------------------------------------------------|
A|----------------------------------------------------------|

Pre-verse:
(guitar1)
d|-----------------------------|
a|-----------------------------|
F|-----------------------------|
C|-10--1010-10\99\710--1010-10-|
G|-10--1010-10\99\710--1010-10-|
D|- 8-- 8 8- 8\77\5 8-- 8 8- 8-|
A|-----------------------------|

d|-------------------------------|
a|-------------------------------|
F|-------------------------------|
C|---10--1010-10\99\710--1010-10-|
G|---10--1010-10\99\710--1010-10-|
D|-X- 8-- 8 8- 8\77\5 8-- 8 8- 8-|
A|-X-----------------------------|

(guitar2)
d|--------------------------|
a|--------------------------|
F|--------------------------|
C|-17~~--16~~-15~~--17-14~~-|
G|--------------------------|
D|--------------------------|
A|--------------------------|

Verse:
d|-----------------------------|
a|-----------------------------|
F|-----------------------------|
C|-10--1010-10\99\710--1010-10-|
G|-10--1010-10\99\710--1010-10-|
D|- 8-- 8 8- 8\77\5 8-- 8 8- 8-|
A|-----------------------------|

d|-------------------------------|
a|-------------------------------|
F|-------------------------------|
C|---10--1010-10\99\710--1010-10-|
G|---10--1010-10\99\710--1010-10-|
D|-X- 8-- 8 8- 8\77\5 8-- 8 8- 8-|
A|-X-----------------------------|

Chorus:
(guitar1)
d|-----------------------------------------------------------------|
a|-----------------------------------------------------------------|
F|-----------------------------------------------------------------|
C|-----------------------------------------------------------------|
G|-------7-7-9-9-7-------7-7-9-9-7-------2-2-2-2-2-------4-4-4-4-4-|
D|-9-9-9-----------7-7-7-----------5-5-5-----------7-7-7-----------|
A|-----------------------------------------------------------------|

(guitar2)
d|----------------------------------------------------------|
a|-12-12^(14)'-----12-12^(14)'-----10-10^(12)'----10-9------|
F|-----------------------------------------------------9----|
C|-------------------------------------------------------11-|
G|----------------------------------------------------------|
D|----------------------------------------------------------|
A|----------------------------------------------------------|

Bridge1:(corrected)
d|-----------------------------------------------|
a|-----------------------------------------------|
F|-----------------------------------------------|
C|-----------------------------------------------|
G|-99999999--------------------------------------|
D|---------22222-000000--22-5-22-000--542-00-222-|
A|-----------------------------------------------|

d|-------------------------------------------------|
a|-------------------------------------------------|
F|-------------------------------------------------|
C|-------------------------------------------------|
G|-99999999-777-6-99-2-2-99-12-9-12-9-12-777-66-22-|
D|-------------------------------------------------|
A|-------------------------------------------------|

Bridge2:(corrected)
d|-------------------------------------------------|
a|-------------------------------------------------|
F|-------------------------------------------------|
C|-------------------------------------------------|
G|-99999999-777-6-99-2-2-99-12-9-12-9-12-777-66-22-|
D|-------------------------------------------------|
A|-------------------------------------------------|

Bridge3:
d|----------------------------------------------------------|
a|-12-12^(14)'-----12-12^(14)'-----10-10^(12)'----10-9------|
F|-----------------------------------------------------9----|
C|-------------------------------------------------------11-|
G|----------------------------------------------------------|
D|----------------------------------------------------------|
A|----------------------------------------------------------|

Chorus:
(guitar1)
d|-----------------------------------------------------------------|
a|-----------------------------------------------------------------|
F|-----------------------------------------------------------------|
C|-----------------------------------------------------------------|
G|-------7-7-9-9-7-------7-7-9-9-7-------2-2-2-2-2-------4-4-4-4-4-|
D|-9-9-9-----------7-7-7-----------5-5-5-----------7-7-7-----------|
A|-----------------------------------------------------------------|

(guitar2)
d|----------------------------------------------------------|
a|-12-12^(14)'-----12-12^(14)'-----10-10^(12)'----10-9------|
F|-----------------------------------------------------9----|
C|-------------------------------------------------------11-|
G|----------------------------------------------------------|
D|----------------------------------------------------------|
A|----------------------------------------------------------|

Fill1:
d|--------------------------------------------|
a|--------------------------------------------|
F|--------------------------------------------|
C|-18~~~--18^(19)'18-18^(19)'18-18^(19)20^(21)|
G|--------------------------------------------|
D|--------------------------------------------|
A|--------------------------------------------|

d|--------------------------------------------------|
a|--------------------------------------------------|
F|-18-20-20^(21)~~-20-18~~-18~~---------------------|
C|----------------------------------18~~-18^(19)'18-|
G|--------------------------------------------------|
D|--------------------------------------------------|
A|--------------------------------------------------|
Добавлено: 18.04.2012
Другие материалы по этой песне:
  • Аккорды и текст

Страница создана 18.04.2012
http://primanota.ru/korn/love-and-luxury-chords.htm
Привет, Гость.
Предлагаем пройти революционный курс по гитаре.
Подарок от PrimaNota.Ru, забирай!