PrimaNota.ru - самый крупный в мире бесплатный архив песенных текстов, аккордов, табулатур и нот


Korn - Lead The Parade - текст песни, таба, видео

Регистрация Запомнить меня
Войти через:  Facebook Google Twitter Vk Yandex Mail.ru

Korn - Lead The Parade - текст песни, таба, видео

Печатать
Просмотров: 169
Korn - Korn III: Remember Who You Are - Lead The Parade

Tabbed By: FRr3AkOnALEaSh (smokin_05@hotmail.com)
Tuning: 7 String Tuned Low to High (A D G C F a d)

Vocal: Jonathan Houseman Davis 'Hiv'
Guitar: James Randal Shaffer 'Munky'
Bass: Reginald Arvizu 'Fieldy
Drums: Ray Luzier

Riff 1 (Intro)(Guitar 1)
D|----------------------------------|
A|----------------------------------|
F|----------------------------------|
C|----------------------------------|
G|----------------------------------|
D|----------------------------------|
A|--6p5(5)--8p7(7)--3h4(4)--2h3(3)--|

Riff 2 (Intro/Chorus 1)(Guitar 1)
D|-------------------------------|
A|-------------------------------|
F|-------------------------------|
C|-------------------------------|
G|-------------------------------|
D|--8\7(7)--10\9(9)--5/6(5)--4~--|
A|--6\5(5)---8\7(7)--3/4(3)--2~--|

Riff 3 (Intro/Chorus 1)(Guitar 1)
D|-----------------------|
A|-----------------------| Stop after each slide
F|-----------------------|
C|-----------------------|
G|-----------------------|
D|--8\7--10\9--5/6--4/5--|
A|--6\5---8\7--3/4--2/3--|

Riff 4 (Intro/Chorus 1)(Guitar 1)
D|------------------------------|
A|------------------------------|
F|------------------------------|
C|------------------------------|
G|------------------------------|
D|--10\9(9)--9\8(8)--8/7(7)--5--|
A|---8\7(7)--7\6(6)--6/5(5)--3--|

Riff 5 (Verse)(Guitar 1)
D|---------------------|---------------------|---------------|---------------|
A|---------------------|---------------------|---------------|---------------|
F|--1111-111111111111--|--1010-101010101010--|--8-8--888888--|--7-7--777777--|
C|--xxxx-xxxxxxxxxxxx--|--xxxx-xxxxxxxxxxxx--|--x-x--xxxxxx--|--x-x--xxxxxx--|
G|---9-9--9-9-9-9-9-9--|---8-8--8-8-8-8-8-8--|--6-6--666666--|--5-5--555555--|
D|---------------------|---------------------|---------------|---------------|
A|---------------------|---------------------|---------------|---------------|

Riff 6 (Verse)(Guitar 1)
D|---------------------|---------------------|-----------------------|-----------|
A|---------------------|---------------------|-----------------------|-----------|
F|--1111-111111111111--|--1010-101010101010--|--14-14--141414141414--|--8-8-8-8--|
C|--xxxx-xxxxxxxxxxxx--|--xxxx-xxxxxxxxxxxx--|--xx-xx--xxxxxxxxxxxx--|--x-x-x-x--|
G|---9-9--9-9-9-9-9-9--|---8-8--8-8-8-8-8-8--|--12-12--121212121212--|--6-6-6-6--|
D|---------------------|---------------------|-----------------------|-----------|
A|---------------------|---------------------|-----------------------|-----------|

Riff 7 (Pre-Chorus 1/Fill)(Guitar 2)
D|-------1313------1313------13--|
A|--1212------1212------1212-----|
F|-------------------------------|
C|-------------------------------|
G|-------------------------------|
D|-------------------------------|

Riff 8 (Chorus 1)(Guitar 2)
D|--14--------|--13--------|--16--------|-----13----13--|
A|-----14-14--|-----13-13--|-----14-14--|--13----13-----|
F|------------|------------|------------|---------------|
C|------------|------------|------------|---------------|
G|------------|------------|------------|---------------|
D|------------|------------|------------|---------------|
A|------------|------------|------------|---------------|

Riff 9 (Pre-Chorus 2)(Guitar 1)
D|--------------------------|
A|--------------------------|
F|--------------------------|
C|--------------------------|
G|--------------------------|
D|--------------------------|
A|--8\77--7\66--6\55--5\44--|

Riff 10 (Chorus 2)(Guitar 1)
D|---------------------------------------------|
A|---------------------------------------------|
F|---------------------------------------------|
C|---------------------------------------------|
G|---------------------------------------------|
D|---------------------------------------------|
A|--00-00(0)--1/8-88(8)--2/3-33(3)--1/2-22(2)--|

Riff 11 (Bridge)(Guitar 1)
D|---------------------------|------------|
A|---------------------------|------------|
F|---------------------------|------------|
C|---------------------------|------------|
G|---------------------------|------------|
D|--5/6-x-6\5-x-4/5-x-5\4-x--|--4~-3--2~--|
A|--3/4-x-4\3-x-2/3-x-3\2-x--|--2~-1--0~--|
                                   .       PM

Riff 12 (Bridge)(Guitar 1)(Clean)
D|-----------------------------------------------|
A|-----------------------------------------------| A bit hard to hear in
F|-----------------------------------------------| the background, but I'm
C|-----------------------------------------------| 100% sure this is what
G|-----------------------------------------------| it is.
D|--2/9~--9-9-10---10-10-12~\7---7h10p7-7h9~-9\--|
A|-----------------------------------------------|

Riff 13 (Bridge)(Guitar 2)(Clean)
D|----------------------------------------|
A|----------------------------------------|
F|--10h11--10h11--10h11--10h11--10\8~-10--|
C|----------------------------------------|
G|----------------------------------------|
D|----------------------------------------|
A|----------------------------------------|

Riff 14 (Outro)(Guitar 1)
D|-----------------------|
A|-----------------------|
F|-----------------------|
C|-----------------------|
G|-----------------------|
D|-----------------------|
A|--8\77--7\66--6\55--4--|

NOTE: Listen to the song to structure out each riff.
Добавлено: 28.06.2012
Другие материалы по этой песне:
  • Аккорды и текст

Страница создана 28.06.2012
http://primanota.ru/korn/lead-the-parade-chords.htm
Привет, Гость.
Предлагаем пройти революционный курс по гитаре.
Подарок от PrimaNota.Ru, забирай!