PrimaNota.ru - самый крупный в мире бесплатный архив песенных текстов, аккордов, табулатур и нот


Korn - Live At Montreux - таба, видео

Регистрация Запомнить меня
Войти через:  Facebook Google Twitter Vk Yandex Mail.ru

Korn - Live At Montreux - таба, видео

Печатать
Просмотров: 130
Korn - Live In Montreux - Munky & Fieldy Jam LIVE

Tabbed By: FRr3AkOnALEaSh (smokin_05@hotmail.com)
Tuning: 7 String Tuned Low to High (A D G C F a d)

Guitar: James Randal Shaffer 'Munky'
Bass: Reginald Arvizu 'Fieldy

YOUTUBE LINK: http://www.youtube.com/watch?v=nEWqs2_rBR0

Riff 1 (Intro)(Bass Part)(Optional)
D|----------------------------|
A|----------------------------|
F|----------------------------|
C|------9-----9-----12-----7--|
G|----9-----9-----12-----7----|
D|--7-----7-----10-----5------|
A|----------------------------|

Riff 2 (0:12 - 0:20)(Clean)
D|--------------------------------------------------|
A|--------------------------------------------------|
F|--------------------------------------------------|
C|--------7/9h11-11--11-11~--12-11----11-9-7--7/9~--|
G|--5/9~---------------------------12---------------|
D|--------------------------------------------------|
A|--------------------------------------------------|

Riff 3 (0:20 - 0:31)(Clean)
D|------------------------------------------------------------------------------------|
A|------------------------------------------------------------------------------------|
F|------------------------------------------------------------------------------------|
C|--17-14-12--12-11~--12p11--11p9---9-10p9-9--9/12~--12-12-11~--11-12-14~--14-12-11~--|
G|------------------------------------------------------------------------------------|
D|------------------------------------------------------------------------------------|
A|------------------------------------------------------------------------------------|

Riff 4 (0:31 - 0:41)(Clean)
D|--------------------------------------------------------------------------|
A|--------------------------------------------------------------------------|
F|-----------------9-11-12-11~--12-11---------------------------------------|
C|--5/9~--9h11/12---------------------12-14-12-9-11~--12-11----11-9-7--7/9--|
G|----------------------------------------------------------12--------------|
D|--------------------------------------------------------------------------|
A|--------------------------------------------------------------------------|

Riff 5 (0:41 - 0:48)(Clean)
D|-----------------------------------------------------|
A|-----------------------------------------------------|
F|-----------------------------------------------------|
C|--5/9-7-9-11-9-11-11~--12p11~--12p11h12~--12-12-11~--|
G|-----------------------------------------------------|
D|-----------------------------------------------------|
A|-----------------------------------------------------|

Riff 6 (0:48 - 1:10)(Distortion)
D|-----------------------------------------------------------|
A|------------------------------------------------------12~--|
F|------------------------------------------------------15~--|
C|-----------------------------------------------------------|
G|--141414-141414-131313-131313-141414-141414\---------------|
D|--121212-121212-111111-111111-121212-121212\---------------|
A|-----------------------------------------------0-0-0-------|
                                                 . . .
Riff 7 (1:10 - 1:20)(Distortion)
D|-----------------------------------------------------|
A|-----------------------------------------------------|
F|-----------------------------------------------------|
C|-----------------------------------------------------|
G|-------------------------------------------------7~--|
D|--12-11----11-10----10-9----9-8----8-7---7-6-----7~--|
A|--------12-------11------10------9-----8-----7---5~--|
                                               .
Добавлено: 03.04.2012
Другие материалы по этой песне:
  • Аккорды и текст

Страница создана 03.04.2012
http://primanota.ru/korn/live-at-montreux-chords.htm
Привет, Гость.
Предлагаем пройти революционный курс по гитаре.
Подарок от PrimaNota.Ru, забирай!