PrimaNota.ru - самый крупный в мире бесплатный архив песенных текстов, аккордов, табулатур и нот


Korn - Ive Seen It All - текст песни, таба, видео

Регистрация Запомнить меня
Войти через:  Facebook Google Twitter Vk Yandex Mail.ru

Korn - Ive Seen It All - текст песни, таба, видео

Печатать
Просмотров: 179
KoRn - Seen it All - See You On The Other Side

Tabbed by Elvisz (elvisz@kornkids.com)
                 (elvisz84@yahoo.com)

Tuning : 7 String Tuned Low to High (A D G C F a d)

Vocal: Jonathan Houseman Davis 'Hiv'
Guitar: James Randal Shaffer 'Munky'
Bass: Reginald Arvizu 'Fieldy'
Drums: David Silveria

Intro:
d|---------------------|
a|---------------------|
F|---------------------|
C|---------------------|
G|----------\44-4\3-3~-|
D|-5~--55-5-\22-2\1-1~-|
A|-3~--33-3-\22-2\1-1~-| 

Fill1:
d|-------------------|
a|-------------------|
F|-------------------|
C|-------------------|
G|----------\44-5555-|
D|-5~--55-5-\22-3333-|
A|-3~--33-3-\22-3333-|

Verse:
d|------------------------|
a|------------------------|
F|------------------------|
C|------------------------|
G|----------1111-11\10-10-|
D|-5~--55-5- 9 9- 9\ 8- 8-|
A|-3~--33-3- 9 9- 9\ 8- 8-|

Fill2:
d|---------------------------|
a|---------------------------|
F|---------------------------|
C|---------------------------|
G|----------11~-10~-10-11-13-|
D|-5~--55-5- 9~- 8~- 8- 9-11-|
A|-3~--33-3- 9~- 8~- 8- 9-11-|

Chorus:
d|-----------------------------------------|
a|-----------------------------------------|
F|-----------------------------------------|
C|-----4~~-------------4~~-----------------|
G|-2~~-4~~-5~~-8~~-2~~-4~~--------888-55\4-|
D|-2~~-2~~-5~~-8~~-2~~-2~~-2-4-5--888-55\4-|
A|-0~~-----3~~-6~~-0~~-----0-2-3--666-33\2-|

d|-----------------------------------------|
a|-----------------------------------------|
F|-----------------------------------------|
C|-----4~~-------------4~~-----777-10-1010-|
G|-2~~-4~~-8~~-5~~-2~~-4~~-----777-10-1010-|
D|-2~~-2~~-8~~-5~~-2~~-2~~-----555- 8- 8 8-|
A|-0~~-----6~~-3~~-0~~---------------------|

Pre-Verse:
d|---------------------|
a|---------------------|
F|---------------------|
C|---------------------|
G|----------\44-4\3-3~-|
D|-5~--55-5-\22-2\1-1~-|
A|-3~--33-3-\22-2\1-1~-| 

Fill3:
d|-------------------|
a|-------------------|
F|-------------------|
C|-------------------|
G|----------\44-5555-|
D|-5~--55-5-\22-3333-|
A|-3~--33-3-\22-3333-|

Verse:
d|------------------------|
a|------------------------|
F|------------------------|
C|------------------------|
G|----------1111-11\10-10-|
D|-5~--55-5- 9 9- 9\ 8- 8-|
A|-3~--33-3- 9 9- 9\ 8- 8-|

Fill3:
d|---------------------------|
a|---------------------------|
F|---------------------------|
C|---------------------------|
G|----------11~-10~-10-11-13-|
D|-5~--55-5- 9~- 8~- 8- 9-11-|
A|-3~--33-3- 9~- 8~- 8- 9-11-|

Chorus:
d|-----------------------------------------|
a|-----------------------------------------|
F|-----------------------------------------|
C|-----4~~-------------4~~-----------------|
G|-2~~-4~~-5~~-8~~-2~~-4~~--------888-55\4-|
D|-2~~-2~~-5~~-8~~-2~~-2~~-2-4-5--888-55\4-|
A|-0~~-----3~~-6~~-0~~-----0-2-3--666-33\2-|

d|-----------------------------------------|
a|-----------------------------------------|
F|-----------------------------------------|
C|-----4~~-------------4~~-----777-10-1010-|
G|-2~~-4~~-8~~-5~~-2~~-4~~-----777-10-1010-|
D|-2~~-2~~-8~~-5~~-2~~-2~~-----555- 8- 8 8-|
A|-0~~-----6~~-3~~-0~~---------------------|

Bridge1:
d|---------------------------|
a|---------------------------|
F|---------------------------|
C|-17~~--14-16---11~~--14-16-|
G|---------------------------|
D|---------------------------|
A|---------------------------| 

Bridge2:
d|--------------------------------------------------------------------------------|
a|--------------------------------------19-19-19-19-21-18-18-18-18-19-16-16-16-16-|
F|-17~~---------16~---17~--17-17-17-17--17-17-17-17-17-17-17-17-17-17-17-17-17-17-|
C|--------------------------------------------------------------------------------|
G|--------------------------------------------------------------------------------|
D|--------------------------------------------------------------------------------|
A|--------------------------------------------------------------------------------| 

Bridge3:
d|-----------------------------------------|
a|-----------------------------------------|
F|-----------------------------------------|
C|-----4~~-------------4~~-----------------|
G|-2~~-4~~-5~~-8~~-2~~-4~~--------888-55\4-|
D|-2~~-2~~-5~~-8~~-2~~-2~~--------888-55\4-|
A|-0~~-----3~~-6~~-0~~------------666-33\2-|

d|-----------------------------------------|
a|-----------------------------------------|
F|-----------------------------------------|
C|-----4~~-------------4~~-----777-10-1010-|
G|-2~~-4~~-8~~-5~~-2~~-4~~-----777-10-1010-|
D|-2~~-2~~-8~~-5~~-2~~-2~~-----555- 8- 8 8-|
A|-0~~-----6~~-3~~-0~~---------------------|

Bridge4:
d|-----------------------------------------|
a|-----------------------------------------|
F|-----------------------------------------|
C|-----4~~-------------4~~-----------------|
G|-2~~-4~~-5~~-8~~-2~~-4~~--------888-55\4-|
D|-2~~-2~~-5~~-8~~-2~~-2~~-2-4-5--888-55\4-|
A|-0~~-----3~~-6~~-0~~-----0-2-3--666-33\2-|

d|-----------------------------------------|
a|-----------------------------------------|
F|-----------------------------------------|
C|-----4~~-------------4~~-----777-10-1010-|
G|-2~~-4~~-8~~-5~~-2~~-4~~-----777-10-1010-|
D|-2~~-2~~-8~~-5~~-2~~-2~~-----555- 8- 8 8-|
A|-0~~-----6~~-3~~-0~~---------------------|

Chorus:
d|-----------------------------------------|
a|-----------------------------------------|
F|-----------------------------------------|
C|-----4~~-------------4~~-----------------|
G|-2~~-4~~-5~~-8~~-2~~-4~~--------888-55\4-|
D|-2~~-2~~-5~~-8~~-2~~-2~~-2-4-5--888-55\4-|
A|-0~~-----3~~-6~~-0~~-----0-2-3--666-33\2-|

d|-----------------------------------------|
a|-----------------------------------------|
F|-----------------------------------------|
C|-----4~~-------------4~~-----777-10-1010-|
G|-2~~-4~~-8~~-5~~-2~~-4~~-----777-10-1010-|
D|-2~~-2~~-8~~-5~~-2~~-2~~-----555- 8- 8 8-|
A|-0~~-----6~~-3~~-0~~---------------------|
Добавлено: 28.02.2012
Другие материалы по этой песне:
  • Аккорды и текст

Страница создана 28.02.2012
http://primanota.ru/korn/ive-seen-it-all-chords.htm
Привет, Гость.
Предлагаем пройти революционный курс по гитаре.
Подарок от PrimaNota.Ru, забирай!