PrimaNota.ru - самый крупный в мире бесплатный архив песенных текстов, аккордов, табулатур и нот


Korn - Jingle Balls - таба, видео

Регистрация Запомнить меня
Войти через:  Facebook Google Twitter Vk Yandex Mail.ru

Korn - Jingle Balls - таба, видео

Печатать
Просмотров: 162
Band- Korn
Song- Jingle Balls
Tuning- Standard Tuning

Riff A (the hole song is Distorted) (Guitar 2)
D|-------------------------------------------------------------|
A|-5-5-5^--5-5-5^--5-8-1-3-5^--6-6-6^--8-6-5-5^-1-3-3-5-3-1--8-|
F|-------------------------------------------------------------|
C|-------------------------------------------------------------|
G|-------------------------------------------------------------|
D|-------------------------------------------------------------|
A|-------------------------------------------------------------|

Riff B (guitar 1)
D|--------------------------------------------------------|
A|--------------------------------------------------------|
F|--------------------------------------------------------|
C|--------------------------------------------------------|
G|--------------------------------------------------------|
D|--------------------------------------------------------|
A|-5-5-5--5-5-5--5-8-1-3-5--6-6-6--8-6-5-5-1-3-3-5-3-1--8-|

Riff C (Both Guitars)
D|------------------------------------------------------|
A|------------------------------------------------------|
F|------------------------------------------------------|
C|------------------------------------------------------|
G|-7-7-7--7-7-7--7-10-3-5-5--8-8-8—10-8-7-7-3-5-5-7-5-10|
D|-7-7-7--7-7-7--7-10-3-5-6--8-8-8-10-8-7-7-3-5-5-7-5-10|
A|-5-5-5--5-5-5--5--8-1-3-5--6-6-6--8-6-5-5-1-3-3-5-3-8-|

Riff D (Both Guitars)
D|------------------------------------------------------|
A|------------------------------------------------------|
F|------------------------------------------------------|
C|------------------------------------------------------|
G|-7-7-7--7-7-7—-7-10-3-5-7--8-8-8-10-8-7-7-3-5-5-7-3-3-|
D|-7-7-7--7-7-7--7-10-3-5-7--8-8-8-10-8-7-7-3-5-5-7-5-3-|
A|-5-5-5--5-5-5--5--8-1-3-5--6-6-6--8-6-5-5-1-3-3-5-3-1-|
  \          /
 (Don't let fade)

Riff E (Heavy Fast part) (Both Guitars) 
D|--------------------------------------------|
A|--------------------------------------------|
F|--------------------------------------------|
C|--------------------------------------------|
G|-7-7-8-8-7--7-5-8-8-7--7-7-8-8-9--7-7-8-8-6-|
D|-7-7-8-8-7--7-7-8-8-7--7-7-8-8-9--7-7-8-8-6-|
A|-5-5-6-6-5--5-5-6-6-5--5-5-6-6-7--5-5-6-6-4-|

Riff F 
(Guitar 1)  
D|---------------|
A|---------------| 
F|---------------|
C|---------------|
G|-7-7-----------| 
D|-7-7-----------| 
A|-5-5-----------|

(Guitar 2)
D|------|
A|--8^--| 
F|------| 
C|------| 
G|------| 
D|------| 
A|------| 

(Guitar 1)
D|-------|
A|-------|
F|-------|
C|-------|
G|-7-7---|
D|-7-7---|
A|-5-5---|

(Guitar 2)
D|------| 
A|--7^--| 
F|------| 
C|------| 
G|------| 
D|------| 
A|------| 

(Both Guitars)
D|------------------------------------------|
A|------------------------------------------|
F|------------------------------------------|
C|------------------------------------------|
G|-7-10-3-5-7--8-8-8--10-8-7-7-3-5-5-7-5-3--|
D|-7-10-3-5-7--8-8-8--10-8-7-7-3-5-5-7-5-3--|
A|-5--8-1-3-5--6-6-6---8-6-5-5-1-3-3-5-3-1--|


Riff G (Guitar 2) Just fool around with this part.
It is done really fast.
    h  h  h  h  h  h    
D|-13-14-15-16-15-14-13-|
A|----------------------|
F|----------------------|
C|----------------------|
G|----------------------|
D|----------------------|
A|----------------------|

Riff H (Guitar 1) (Distorted Wha Pedal)
D|-------|
A|-------|
F|-------|
C|-------|
G|-0-\10-|
D|-0-\10-|
A|-0-\10-|


Riff H (Guitar 2)Just keep the strings bent and slide during this part.

D|-15^--18^-11^-13^-15^--16^-16^-16^---18^-16^-15^-15^-11^-13^-13^-15^-13^-11^--|
A|------------------------------------------------------------------------------|
F|------------------------------------------------------------------------------|
C|------------------------------------------------------------------------------|
G|------------------------------------------------------------------------------|
D|------------------------------------------------------------------------------|
A|------------------------------------------------------------------------------|
Добавлено: 17.04.2012
Другие материалы по этой песне:
  • Аккорды и текст

Страница создана 17.04.2012
http://primanota.ru/korn/jingle-balls-chords.htm
Привет, Гость.
Предлагаем пройти революционный курс по гитаре.
Подарок от PrimaNota.Ru, забирай!