PrimaNota.ru - самый крупный в мире бесплатный архив песенных текстов, аккордов, табулатур и нот


Korn - Kidnap The Sandy Claws - текст песни, таба, бас-таба, видео

Регистрация Запомнить меня
Войти через:  Facebook Google Twitter Vk Yandex Mail.ru

Korn - Kidnap The Sandy Claws - текст песни, таба, бас-таба, видео

Печатать
Просмотров: 660
Авторы музыки: Danny Elfman
Авторы текста: Danny Elfman
Korn
Kidnap The Sandy Claws
Tabbed by U B the band
Tuning A D G C F A D

Legend
pm-palm mute                       p-pull off                       /-slide up

Intro: Guitar 1: Distorted)
D|----------------------------------------------------------------------------|
A|----------------------------------------------------------------------------|
F|----------------------------------------------------------------------------|
C|----------------------------------------------------------------------------|
G|-------------------------------------------------------------7--------------|
D|--4----7----6----7----4----7----6---------4----7----6----7-------7----------|
A|-------------------------------------8-------------------------------8------|
                                                                              |
Intro: Guitar 2 (Low Distortion w/ Effects)                                   |
D|----------------------------------------------------------------------------|
A|----------------------------------------------------------------------------|
F|----------------------------------------------------------------------------|
C|--18--------17--------16--------15--------14--------13-------14-------------|
G|----------------------------------------------------------------------------|
D|----------------------------------------------------------------------------|
A|----------------------------------------------------------------------------|

Intro: Guitar 1 (Distorted) PLAY 3 TIMES “La-- la la...”
D|----------------------------------------------------------------------------|
A|----------------------------------------------------------------------------|
F|----------------------------------------------------------------------------|
C|----------------------------------------------------------------------------|
G|------------------------------------------------------------------10-9--8---|
D|------------------------------------------------------------------8--7--6---|
A|--12----0----0----12----0----0---11-11--12----0----0----12----0-------------|

Intro: Guitar 1 (Distorted) PLAY 1 TIME
D|----------------------------------------------------------------------------|
A|----------------------------------------------------------------------------|
F|----------------------------------------------------------------------------|
C|----------------------------------------------------------------------------|
G|------------------------------------------------------------------12-11-10--|
D|------------------------------------------------------------------10-9--8---|
A|--12----0----0----12----0----0---11-11--12----0----0----12----0-------------|

Verse 1: Guitar 1 (Low Distortion) “First we're going to set some bait...”
D|----------------------------------------------------------------------------|
A|--0---0----0---0----0---0----0---0----0---0----0---0------------------------|
F|----7---7----6--------7---7----6--------7---7----6--------------------------|
C|------------------------------------------------------------------8--8--8---|
G|--------------------------------------------------------10-10-10--x--x--x---|
D|--------------------------------------------------------x--x--x---6--6--6---|
A|--------------------------------------------------------8--8--8-------------|
    pmpmpmpm          pmpmpmpm          pmpmpmpm

Verse 1: Guitar 1 (Low Distortion) “Wait I got a better plan...”
D|----------------------------------------------------------------------------|
A|--0---0----0---0----0---0----0---0----0---0----0---0------------------------|
F|----7---7----6--------7---7----6--------7---7----6--------------------------|
C|--------------------------------------------------------5--5--5-------------|
G|--------------------------------------------------------x--x--x-------------|
D|--------------------------------------------------------3--3--3---5--4--4---|
A|------------------------------------------------------------------3--2--2---|
    pmpmpmpm          pmpmpmpm          pmpmpmpm

Chorus: Guitar 1 (Distorted) PLAY 1 TIME “Kidnap the sandy claws” 
D|----------------------------------------------------------------------------|
A|----------------------------------------------------------------------------|
F|----------------------------------------------------------------------------|
C|----------------------------------------------------------------------------|
G|------------------------------------------------------------------10-9--8---|
D|------------------------------------------------------------------8--7--6---|
A|--12----0----0----12----0----0---11-11--12----0----0----12----0-------------|

Chorus: Guitar 1 (Distorted) PLAY 1 TIME
D|----------------------------------------------------------------------------|
A|----------------------------------------------------------------------------|
F|----------------------------------------------------------------------------|
C|----------------------------------------------------------------------------|
G|------------------------------------------------------------------12-11-10--|
D|------------------------------------------------------------------10-9--8---|
A|--12----0----0----12----0----0---11-11--12----0----0----12----0-------------|

Post Chorus: Guitar 1 (Distorted) PLAY 2 TIMES “Then Mr. Oogie Boogie Man”
D|----------------------------------------------------------------------------|
A|----------------------------------------------------------------------------|
F|----------------------------------------------------------------------------|
C|--3-/4\-3-/4\-3------------------------3-/4\-3-/4\-3------------------------|
G|--x--x--x--x--x------------------------x--x--x--x--x------------------------|
D|--1-/2\-1-/2\-1--2--2----3------4------1-/2\-1-/2\-1--2--2----4------5------|
A|-----------------0--0----1------2---------------------0--0----2------3------|

Post Chorus: Guitar 1: Distorted) 
D|----------------------------------------------------------------------------|
A|----------------------------------------------------------------------------|
F|----------------------------------------------------------------------------|
C|----------------------------------------------------------------------------|
G|-------------------------------------------------------------7--------------|
D|--4----7----6----7----4----7----6---------4----7----6----7-------7----------|
A|-------------------------------------8-------------------------------8---5--|
                                                                              |
Post Chorus: Guitar 2 (Low Distortion w/ Effects)                             |
D|----------------------------------------------------------------------------|
A|----------------------------------------------------------------------------|
F|----------------------------------------------------------------------------|
C|--18--------17--------16--------15--------14--------13-------14-------------|
G|----------------------------------------------------------------------------|
D|----------------------------------------------------------------------------|
A|----------------------------------------------------------------------------|

Verse 2: Guitar 2 (Distorted) “I say we take a cannon...”
D|----------------------------------------------------------------------------|
A|----------------------------------------------------------------------------|
F|----------------------------------------------------------------------------|
C|--16-------11-------12--11--12--14--12--11-------16---11---9----------------|
G|----------------------------------------------------------------------------|
D|----------------------------------------------------------------------------|
A|----------------------------------------------------------------------------|

Verse 2: Guitar 1 (Distorted) “You're so stupid, think now...”
D|----------------------------------------------------------------------------|
A|----------------------------------------------------------------------------|
F|----------------------------------------------------------------------------|
C|----------------------------------------------------------------------------|
G|----------------------------------------------------------------------------|
D|---------------------------------------------------------------5-5-5--4-4-4-|
A|---------------------------------------------------------------3-3-3--2-2-2-|
                                                                              |
Verse 2: Guitar 2 (Distorted) “You're so stupid, think now...”                |
D|----------------------------------------------------------------------------|
A|----------------------------------------------------------------------------|
F|----------------------------------------------------------------------------|
C|--16-------11-------12--11--12--14--12--11-------16----------18-----19------|
G|----------------------------------------------------------------------------|
D|----------------------------------------------------------------------------|
A|----------------------------------------------------------------------------|

Chorus: Guitar 1 (Distorted) PLAY 1 TIME “Kidnap the sandy claws” 
D|----------------------------------------------------------------------------|
A|----------------------------------------------------------------------------|
F|----------------------------------------------------------------------------|
C|----------------------------------------------------------------------------|
G|------------------------------------------------------------------10-9--8---|
D|------------------------------------------------------------------8--7--6---|
A|--12----0----0----12----0----0---11-11--12----0----0----12----0-------------|

Chorus: Guitar 1 (Distorted) PLAY 1 TIME
D|----------------------------------------------------------------------------|
A|----------------------------------------------------------------------------|
F|----------------------------------------------------------------------------|
C|----------------------------------------------------------------------------|
G|------------------------------------------------------------------12-11-10--|
D|------------------------------------------------------------------10-9--8---|
A|--12----0----0----12----0----0---11-11--12----0----0----12----0-------------|

Chorus Continued: Guitar 1 (Distorted) “Because Mr. Oogie Boogie...”
D|----------------------------------------------------------------------------|
A|----------------------------------------------------------------------------|
F|----------------------------------------------------------------------------|
C|--4--------/-9----------4--------/-9-------10-------------------------------|
G|--x----------x----------x----------x-------10----------9------10-----9------|
D|--2--------/-7----------2--------/-7-------8-----------9------10-----9------|
A|-------------------------------------------------------7------8------7------|

Post Chorus: Guitar 1 (Distorted) “He'll be so pleased...””
D|----------------------------------------------------------------------------|
A|----------------------------------------------------------------------------|
F|----------------------------------------------------------------------------|
C|--3-/4\-3-/4\-3------------------------3-/4\-3-/4\-3------------------------|
G|--x--x--x--x--x------------------------x--x--x--x--x------------------------|
D|--1-/2\-1-/2\-1--2--2----3------4------1-/2\-1-/2\-1--2--2----4------5------|
A|-----------------0--0----1------2---------------------0--0----2------3------|

Post Chorus: Guitar 1 (Distorted) “Perhaps he'll make a special brew...”
D|----------------------------------------------------------------------------|
A|----------------------------------------------------------------------------|
F|----------------------------------------------------------------------------|
C|--3-/4\-3-/4\-3------------------------3-/4\-3-/4\-3------------------------|
G|--x--x--x--x--x------------------------x--x--x--x--x------------------------|
D|--1-/2\-1-/2\-1--2--2----3------4------1-/2\-1-/2\-1--2--2----5------4------|
A|-----------------0--0----1------2---------------------0--0----3------2------|

Verse 3: Guitar 1 (Distorted) “We're his little henchmen...”
D|----------------------------------------------------------------------------|
A|----------------------------------------------------------------------------|
F|----------------------------------------------------------------------------|
C|----------------------------------------------------------------------------|
G|---------------------------------------------------------------10----7------|
D|--------4-----5-----9-----------4-----10----13-----7-----10----8-----5------|
A|--0-----2-----3-----7-----0-----2-----8-----11-----5-----8------------------|
                                                                              |
Verse 3: Guitar 2 (Distorted w/ Effects) “We're his little henchmen...”       |
D|--------------------14-----------------------------------------8-----5------|
A|--12----14----15----------12----14----8-----11-----5-----8------------------|
F|----------------------------------------------------------------------------|
C|----------------------------------------------------------------------------|
G|----------------------------------------------------------------------------|
D|----------------------------------------------------------------------------|
A|----------------------------------------------------------------------------|

Verse 3: Guitar 1 (Distorted) “I've got something, listen now”
D|----------------------------------------------------------------------------|
A|----------------------------------------------------------------------------|
F|----------------------------------------------------------------------------|
C|------------------------------------------------------------------6--6--6---|
G|--0---0----0--------0---0----0--------0---0----0--------8--8--8---x--x--x---|
D|----8---8----7-7------8---8----7-7------8---8----7-7----x--x--x---4--4--4---|
A|--------------------------------------------------------6--6--6-------------|

Verse 3: Guitar 1 (Distorted) “Now in the box...”
D|----------------------------------------------------------------------------|
A|----------------------------------------------------------------------------|
F|----------------------------------------------------------------------------|
C|--------------------------------------------------------6--6--6-------------|
G|--0---0----0--------0---0----0--------0---0----0--------x--x--x---8--8--8---|
D|----8---8----7-7------8---8----7-7------8---8----7-7----4--4--4---x--x--x---|
A|------------------------------------------------------------------6--6--6---|

Verse 3: Guitar 1 (Low Volume & Distorted) “Kidnap the Sandy Claws”
D|----------------------------------------------------------------------------|
A|----------------------------------------------------------------------------|
F|----------------------------------------------------------------------------|
C|------------------------------------------------------------------6--6--6---|
G|--0---0----0--------0---0----0--------0---0----0--------8--8--8---x--x--x---|
D|----8---8----7-7------8---8----7-7------8---8----7-7----x--x--x---4--4--4---|
A|--------------------------------------------------------6--6--6-------------|

Verse 3: Guitar 1 (Distorted) “Kidnap the Sandy Claws”
D|----------------------------------------------------------------------------|
A|----------------------------------------------------------------------------|
F|----------------------------------------------------------------------------|
C|--------------------------------------------------------6--6--6-------------|
G|--0---0----0--------0---0----0--------0---0----0--------x--x--x-------------|
D|----8---8----7-7------8---8----7-7------8---8----7-7----4--4--4-------------|
A|----------------------------------------------------------------------------|

Chorus: Guitar 1 (Distorted) PLAY 3 TIMES “Kidnap the Sandy Claws”
D|----------------------------------------------------------------------------|
A|----------------------------------------------------------------------------|
F|----------------------------------------------------------------------------|
C|----------------------------------------------------------------------------|
G|------------------------------------------------------------------10-9--8---|
D|------------------------------------------------------------------8--7--6---|
A|--12----0----0----12----0----0---11-11--12----0----0----12----0-------------|

Chorus: Guitar 1 (Distorted) PLAY 1 TIME
D|----------------------------------------------------------------------------|
A|----------------------------------------------------------------------------|
F|----------------------------------------------------------------------------|
C|----------------------------------------------------------------------------|
G|------------------------------------------------------------------12-11-10--|
D|------------------------------------------------------------------10-9--8---|
A|--12----0----0----12----0----0---11-11--12----0----0----12----0-------------|

Outro: Guitar 1 (Distorted) PLAY OUTRO 2 TIMES, FADE OUT 2ND TIME
D|----------------------------------------------------------------------------|
A|----------------------------------------------------------------------------|
F|----------------------------------------------------------------------------|
C|----------------------------------------------------------------------------|
G|------------------------------------------------------------------10-9--8---|
D|------------------------------------------------------------------8--7--6---|
A|--12----0----0----12----0----0---11-11--12----0----0----12----0-------------|
                                                                              |
Outro: Guitar 2 (Distorted w/ Effects)                                        |
D|----------------------------------------------------------------------------|
A|--12------------------------------------15----------------------------------|
F|----------------------------------------------------------------------------|
C|----------------------------------------------------------------------------|
G|----------------------------------------------------------------------------|
D|----------------------------------------------------------------------------|
A|----------------------------------------------------------------------------|

Outro: Guitar 1 (Distorted) “La-- la la...”
D|----------------------------------------------------------------------------|
A|----------------------------------------------------------------------------|
F|----------------------------------------------------------------------------|
C|----------------------------------------------------------------------------|
G|------------------------------------------------------------------10-9--8---|
D|------------------------------------------------------------------8--7--6---|
A|--12----0----0----12----0----0---11-11--12----0----0----12----0-------------|
                                                                              |
Outro: Guitar 2 (Distorted w/ Effects)                                        |
D|----------------------------------------------------------------------------|
A|--19------------------------------------24----------------------------------|
F|----------------------------------------------------------------------------|
C|----------------------------------------------------------------------------|
G|----------------------------------------------------------------------------|
D|----------------------------------------------------------------------------|
A|----------------------------------------------------------------------------|

Outro: Guitar 1 (Distorted)
D|----------------------------------------------------------------------------|
A|----------------------------------------------------------------------------|
F|----------------------------------------------------------------------------|
C|----------------------------------------------------------------------------|
G|------------------------------------------------------------------10-9--8---|
D|------------------------------------------------------------------8--7--6---|
A|--12----0----0----12----0----0---11-11--12----0----0----12----0-------------|
                                                                              |
Outro: Guitar 2 (Distorted w/ Effects)                                        |
D|----------------------------------------------------------------------------|
A|--12------------------------------------15----------------------------------|
F|----------------------------------------------------------------------------|
C|----------------------------------------------------------------------------|
G|----------------------------------------------------------------------------|
D|----------------------------------------------------------------------------|
A|----------------------------------------------------------------------------|

Outro: Guitar 1 (Distorted) “La-- la la...”
D|----------------------------------------------------------------------------|
A|----------------------------------------------------------------------------|
F|----------------------------------------------------------------------------|
C|----------------------------------------------------------------------------|
G|------------------------------------------------------------------12-11-10--|
D|------------------------------------------------------------------10-9--8---|
A|--12----0----0----12----0----0---11-11--12----0----0----12----0-------------|
                                                                              |
Outro: Guitar 2 (Distorted w/ Effects)                                        |
D|----------------------------------------------------------------------------|
A|--19------------------------------------24----------------------------------|
F|----------------------------------------------------------------------------|
C|----------------------------------------------------------------------------|
G|----------------------------------------------------------------------------|
D|----------------------------------------------------------------------------|
A|----------------------------------------------------------------------------|

Finished!
Добавлено: 21.05.2012
Другие материалы по этой песне:

Страница создана 12.04.2012
http://primanota.ru/korn/kidnap-the-sandy-claws-chords.htm
Привет, Гость.
Предлагаем пройти революционный курс по гитаре.
Подарок от PrimaNota.Ru, забирай!