PrimaNota.ru - самый крупный в мире бесплатный архив песенных текстов, аккордов, табулатур и нот


Korn - Im Hidding - бас-таба, видео

Регистрация Запомнить меня
Войти через:  Facebook Google Twitter Vk Yandex Mail.ru

Korn - Im Hidding - бас-таба, видео

Печатать
Просмотров: 122
Korn-Im Hidding
Bassist:Fieldy
Bass Tab: Andre Philippe
Tunning: ADGCF


Intro(slap all)
F|------------------------------------||
C|------------------------------------||
G|------------------------------------||
D|------------------------------------||
A|---3-4-3-2--223-4-3-2-3-------------||

Verse
F|-----------------------||
C|-----------------------||
G|-----------------------||
D|-----------------------||
A|---3-3-3-3-3-2---------||

F|-----------------------||
C|-----------------------||
G|-----------------------||
D|-----------------------||
A|---3-3-3-3-3-2/9-------||

Chorus
F|----------------------------------||
C|----------------------------------||
G|-----2-2H4-4----------------------||
D|----------------3--3--------------||
A|---0-------------------3-5-2------||

This is th whole song
Nothing so difficult
It's cool to play that
Listen to that good music for timming.
Добавлено: 25.07.2012
Другие материалы по этой песне:
  • Аккорды и текст

Страница создана 25.07.2012
http://primanota.ru/korn/im-hidding-chords.htm
Привет, Гость.
Предлагаем пройти революционный курс по гитаре.
Подарок от PrimaNota.Ru, забирай!