PrimaNota.ru - самый крупный в мире бесплатный архив песенных текстов, аккордов, табулатур и нот


Koji Kondo - Snowpeak - таба, видео

Регистрация Запомнить меня
Войти через:  Facebook Google Twitter Vk Yandex Mail.ru

Koji Kondo - Snowpeak - таба, видео

Печатать
Просмотров: 50
Уроки эстрадного вокала в Санкт-Петербурге
-------------------------------------------------------------------------------
                Snowpeak - The Legend of Zelda: Twilight Princess 
-------------------------------------------------------------------------------
Tabbed by: TomoMastaa
E-mail: Tomomastaa@gmail.com

Tuning: Standard (E A D G B e)

e|------15--14--------------------------------15--14-------------------------|
B|-12------------------------------------12-----------15---------------------|
G|---------------------------------------------------------------------------|
D|---------------------------------------------------------------------------|
A|---------------------------------------------------------------------------|
E|---------------------------------------------------------------------------|

e|------15--14--------------------------------13--12-------------------------|
B|-12------------------------------------10-----------13--12-----------------|
G|---------------------------------------------------------------------------|
D|---------------------------------------------------------------------------|
A|---------------------------------------------------------------------------|
E|---------------------------------------------------------------------------|

e|------15--14--------------------------------15--14-------------------------|
B|-12------------------------------------12-----------15---------------------|
G|---------------------------------------------------------------------------|
D|---------------------------------------------------------------------------|
A|---------------------------------------------------------------------------|
E|---------------------------------------------------------------------------|

e|------15--14--------------------------------16--15--18---------------------|
B|-12------------------------------------13----------------------------------|
G|---------------------------------------------------------------------------|
D|---------------------------------------------------------------------------|
A|---------------------------------------------------------------------------|
E|---------------------------------------------------------------------------|


************************************

| /   slide up
| \   slide down
| h   hammer-on
| p   pull-off
| ~   vibrato
| +   harmonic
| x   Mute note
| b   Bend
| pb  Pre-bend
| br  Bend release
| pbr Pre-bend release
| brb Bend release bend

************************************
Добавлено: 21.04.2016
Другие материалы по этой песне:
  • Аккорды и текст

Страница создана 21.04.2016
http://primanota.ru/koji-kondo/snowpeak-chords.htm
Привет, Гость.
Предлагаем пройти революционный курс по гитаре.
Подарок от PrimaNota.Ru, забирай!