PrimaNota.ru - самый крупный в мире бесплатный архив песенных текстов, аккордов, табулатур и нот


Koji Kondo - The Legend Of Zelda - Game Over - таба, видео

Регистрация Запомнить меня
Войти через:  Facebook Google Twitter Vk Yandex Mail.ru

Koji Kondo - The Legend Of Zelda - Game Over - таба, видео

Печатать
Просмотров: 42
The music when you die in the Legend of Zelda.

90 bpm Standard Tuning


    T  T  T  T  T  T  T  T  T  T  T  T  T  T  T  T  T  T  T T T T Q                          S
|-------------------------------------------------------------------------------------------19-|
|--16-15-14-13-15-14-13-12-14-13-12-11-13-12-11-10-12-11-10-9-8-7-5-------------------------17-|
|----------------------------------------------------------------------------------------------|
|----------------------------------------------------------------------------------------------|
|----------------------------------------------------------------------------------------------|
|----------------------------------------------------------------------------------------------|


♥ CONTINUE
  SAVE
  RETRY


     E   E   E   E   E   E   E   E      E   E   E   E   E   E   E   E   
|---------------------------19------|--17----------17--15--------------|
|---20----------17--16--------------|----------17--------------15--17--|
|*----------17------------------16--|------17--------------17----------|
|*------17--------------17----------|----------------------------------|
|-----------------------------------|----------------------------------|
|-----------------------------------|----------------------------------|


    E   E   E   E   E   E   E   E      E   E   E   E   E   E   E   E   
|--17----------17--16--------------|-----------------------------------|
|----------18--------------15--18--|--17----------17--15---------------|
|------17--------------17----------|----------17--------------16--19--*|
|----------------------------------|------17--------------19----------*|
|----------------------------------|-----------------------------------|
|----------------------------------|-----------------------------------|

Q - quarter note
E - 8th note
S - 16th note
T - 32nd note
Добавлено: 21.04.2016
Другие материалы по этой песне:
  • Аккорды и текст

Страница создана 21.04.2016
http://primanota.ru/koji-kondo/legend-of-zelda-game-over-chords.htm
Привет, Гость.
Предлагаем пройти революционный курс по гитаре.
Подарок от PrimaNota.Ru, забирай!