PrimaNota.ru - самый крупный в мире бесплатный архив песенных текстов, аккордов, табулатур и нот


Koji Kondo - Super Mario Bros 3 - Above Ground - таба, видео

Регистрация Запомнить меня
Войти через:  Facebook Google Twitter Vk Yandex Mail.ru

Koji Kondo - Super Mario Bros 3 - Above Ground - таба, видео

Печатать
Просмотров: 58
Уроки эстрадного вокала в Санкт-Петербурге
Title: Above Ground
Artist: Koji Kondo
Album: Super Mario Bros. 3
Tab: Matias Lavik


Play in "swing-feel".

E|---------3---1----------------|-----------15--------|------------------------------|
B|-----0------------------------|---------------------|-----5---4-------5--------4---|
G|-0----------------2---3---4---|-------12------------|----------------------0-------|
D|------------------3---4---5---|---------------------|-----------------2------------|
A|------------------------------|---------------------|------------------------------|
E|------------------------------|---------------------|------------------------------|


E|---------------------------|---------------------------------|---------------------------|
B|-5-------------------------|-5---4-------5---5-------1-------|-3-------------------------|
G|------0---5----------------|---------------------0-----------|---------------------------|
D|---------------------------|-------------2-------------------|-------------------0-------|
A|--------------0---0---3----|---------------------------------|-----------2---2-----------|
E|---------------------------|---------------------------------|-------3-------------------|


E|------------------------------|---------------------------|------------------------------|
B|-----5---4-------5--------4---|-5-------------------------|--5----5----5-----------------|
G|----------------------0-------|------0---5----------------|-----------------0-------2----|
D|-----------------2------------|---------------------------|------------2-----------------|
A|------------------------------|--------------0---0---3----|------------------------------|
E|------------------------------|---------------------------|---------------------3--------|


E|------|-------------------------5-|-------------------------3-|--------------------1----|
B|-1----|---------------------6-----|---------------------5-----|-----------------3-------|
G|------|-2---2---5---5-------------|-0---0---5---5-------------|---------2---2-----------|
D|------|-3---3---3---3-------------|-2---2---2---2-------------|-3---3---3---3-----------|
A|-3----|---------------------------|---------------------------|-5---5-------------------|
E|------|---------------------------|---------------------------|-------------------------|


E|-------------------------0----|-------------------------5----|-------------------------5----|
B|---------------------1--------|---------------------6--------|---------------------7--------|
G|------------------------------|-2---2---5---5----------------|-2---2---5---5----------------|
D|-2---2---5---5----------------|-3---3---3---3----------------|-4---4---4---4----------------|
A|-3---3---3---3----------------|------------------------------|------------------------------|
E|------------------------------|------------------------------|------------------------------|


E|---------------------------------|-----3---3-------3-----|
B|---------------------------------|-----3---3-------3-----|
G|-4---4---5---5---6---6---7---7---|-----------------------|
D|-5---5---7---7---8---8---9---9---|-----------------------|
A|---------------------------------|-----------------------|
E|-3---3---5---5---6---6---7---7---|---------3-------3-----|



Добавлено: 21.04.2016
Вам также может быть интересно:
Другие материалы по этой песне:

Страница создана 21.04.2016
http://primanota.ru/koji-kondo/super-mario-bros-3-above-ground-chords.htm
Привет, Гость.
Предлагаем пройти революционный курс по гитаре.
Подарок от PrimaNota.Ru, забирай!