PrimaNota.ru - самый крупный в мире бесплатный архив песенных текстов, аккордов, табулатур и нот


Keith Urban - Good Thing - таба, видео

Регистрация Запомнить меня
Войти через:  Facebook Google Twitter Vk Yandex Mail.ru

Keith Urban - Good Thing - таба, видео

Печатать
Просмотров: 117
Keith Urban, Good Thing

e|-12---------------------------------------------------------------------|
B|----15-12---------------------------------------------------------------|
G|----------14-12-------------0---------------------------0---4-6-6h7-7p6-|
D|----------------14--0-2-0-2---2-0-2---0---------0-2-0-2---2-5-7-7---7---|
A|------------------------------------2---2-4br-2-------------5-7---------|
E|------------------------------------------------------------------------|

e|-----------------------------------------------------------0-|
B|-----------------------------------------------------------0-|
G|---------0---------------------------0---4-6-6h7-7p6-------1-|
D|-0-2-0-2---2-0-2---0---------0-2-0-2---2-5-7-7---7---------2-|
A|-----------------2---2-4br-2-------------5-7---------------2-|
E|-----------------------------------------------------3-2-0-0-|



(verse)
E
Just hold it now, let me put my drink down
E
Baby tell me are you really for real?
E
Swingin side to side, doin' that electric slide
E
Spinnin on your pretty cowgirl boot heels
E                            D
And you all alone, that aint right
  A                                          E
A girl like you should have the best of everything
                          D
Like someone to treat you right
A     
What I wouldn't give to hold you close

Longer than tonight


(chorus)
               E                 D
Cause I know a good thing when I see it
              A                                   E
And youve got something like I aint never seen before (before)
                                 G
Yeah I know a sweet dream when I dream it
     A
Just give me one chance
                                     E
And you wont never be lonely no more 


(instrumental)
e|-----------------------------------------------------------0-|
B|-----------------------------------------------------------0-|
G|---------0---------------------------0---4-6-6h7-7p6-------1-|
D|-0-2-0-2---2-0-2---0---------0-2-0-2---2-5-7-7---7---------2-|
A|-----------------2---2-4br-2-------------5-7---------------2-|
E|-----------------------------------------------------3-2-0-0-|

                       aya hmmm, thats right, whoo


(verse)
E                             D
The possibilities, hmm theyre killing me
            A                                               E
Like theyre killing every dude in the room with the way you move
             E
And you aint slowin down, my head's spinnin round
         D
But this neon buzz is a getting me up

And I wanna get down with you



(chorus)
               E                 D
Cause I know a good thing when I see it
              A                                   E
And youve got something like I aint never seen before (before)
                                 G
Yeah I know a sweet dream when I dream it
     A
Just give me one chance
                                     E
And youll never be lonely no more 


(instrumental-bridge)
E     D     A, E                  
Oohh ohh, yeah,  oh baby sweet dream,

     D  A,
Wooh,     youll never be lonely

E  D  A, E  D  A



(chorus)
              E                 D  
Yeah I know a good thing when I see it
              A                                   E
And youve got something like I aint never seen before (oh-before)
                                 G 
Yeah I know a sweet dream when I dream it
           A 
If you let me be your man (you'll never be lonely)
                          E    D       A
You'll never be lonely no more, no more 
          E                               D      A
ooh oh oh, baby youre a good thing, wooh, ay yeah 
                      E                    G A,      E
Youll never be lonely, 

e|-----------------------------------------3-5-------0-|
B|-----------------------------------------3-5-------0-|
G|---------0---------------------------0---4-6-------1-|
D|-0-2-0-2---2-0-2---0---------0-2-0-2---2-5-7-------2-|
A|-----------------2---2-4br-2-------------5-7-------2-|
E|-----------------------------------------3-5-3-2-0-0-|

                   Whoo,             ay
Добавлено: 12.09.2013
Другие материалы по этой песне:

Страница создана 12.09.2013
http://primanota.ru/keith-urban/good-thing-chords.htm
Привет, Гость.
Предлагаем пройти революционный курс по гитаре.
Подарок от PrimaNota.Ru, забирай!