PrimaNota.ru - самый крупный в мире бесплатный архив песенных текстов, аккордов, табулатур и нот


Keith Urban - Youll Think Of Me Live - таба, видео

Регистрация Запомнить меня
Войти через:  Facebook Google Twitter Vk Yandex Mail.ru

Keith Urban - Youll Think Of Me Live - таба, видео

Печатать
Просмотров: 97
This is the intro from Keith's live performance of You'll Think of Me ("Best Live 
Performance") seen here: http://youtu.be/Jk1nw4Uoxig

e---------0----------|--------0--------|----0--------------|
B----3------3---3----|----0--------3---|---------3---3--3--|
G---0--0-----0---0-0-|---0--0---0---0-0|---0--0----0---0-0-|
D--4----4-----4---4--|--2----2---2---2-|--4----4----4------|
A--------------------|-3----------3----|-------------------|
E-0------------------|-----------------|-0-----------------|


--0--0--0---0------------|--------0---------|
-5--7--8--10--10/12\5-5~-|----3-----3---3---|
-------------------------|---0--0----0-0-0--|
-------------------------|--4----4----4---4-|
-------------------------|------------------|
-------------------------|-0----------------|


----------------------------|----------0--------|---0~---|
--0-------------------------|-----3------3---3--|---3~---|
----2-0----0------0---------|----0--0-----0-0---|---0~---|
--------2h4----2h4---2p0----|---4----4-----4--4-|---2~---|
-3-3-3------3------3--------|-------------------|---3~---|
----------------------------|-0-----------------|--------|
Добавлено: 29.05.2012
Другие материалы по этой песне:
  • Аккорды и текст

Страница создана 29.05.2012
http://primanota.ru/keith-urban/youll-think-of-me-live-chords.htm
Привет, Гость.
Предлагаем пройти революционный курс по гитаре.
Подарок от PrimaNota.Ru, забирай!