PrimaNota.ru - самый крупный в мире бесплатный архив песенных текстов, аккордов, табулатур и нот


Katatonia - Gateways Of Bereavement - текст песни, таба, видео

Регистрация Запомнить меня
Войти через:  Facebook Google Twitter Vk Yandex Mail.ru

Katatonia - Gateways Of Bereavement - текст песни, таба, видео

Печатать
Просмотров: 82
Авторы музыки: Blackheim
Авторы текста: Jonas Renkse
Katatonia - Gateways of Bereavement

Some parts of Lead Guitar.

Tabbed by watching TheIceGray playing on Youtube.

Tuning: Eb



00:00- 1:32
|-------------------------------------------------------------------
|-------------------------------------------------------------------
|-------------------------------------------------------------------
|-------------------------5-4-2-4-5-------------------------5-4-2-4-
|---2-3-2-5-2-3-2---2-3-2-------------2-3-2-5-2-3-2---2-3-2---------
|-0---------------0-----------------0---------------0---------------


|------------------------------------------------------------------
|------------------------------------------------------------------
|------------------------------------------------------------------
|-------------------------9-7-5-7-9-------------------------5-4-2--
|---2-3-2-5-2-3-2---2-3-2-------------2-3-2-5-2-3-2---2-3-2------3-
|-0---------------0-----------------0---------------0--------------

1:32-2:48
|-------------------------------------------------------
|-------------------------------------------------------
|-------------------------------------------------------
|----12-10-12-10-9----12-10-12-10-9----12-14-10-12-10-9-
|-10---------------10---------------10------------------
|-------------------------------------------------------

2:48->

E|-----------------------------------
B|-----------------------------------
G|---------------------------------5-
D|-----4-5-----4-------4-5-----5-4---
A|---2-------3----5---2-------3-------
E|-0-------0--------0-------0---------

4:37-5:10

|--------------------------------------------------------------------------------------
|--------------------------------------------------------------------------------------
|-9-7---------------9-7-----------------------------------9----------------------------
|-----10-9-10-9-7-9-----10-9-10-9-7---10-9-7-5-7-9-10-9-7---10-9-7-5-7-9-10-9-7-9-10-9-
|-----------------------------------7--------------------------------------------------
|--------------------------------------------------------------------------------------


|----------------------------------------------------------------------------------------
|----------------------------------------------------------------------------------------
|-9-7-------------------------------------------------------9----------------------------
|-----10-9-10-9-7-9-10-9-10-10-9-10-9---10-9-7-5-7-9-10-9-7---10-9-7-5-7-9-10-9-7-9-10-9-
|-------------------------------------7--------------------------------------------------
|----------------------------------------------------------------------------------------

                                                        
Добавлено: 30.03.2016
Другие материалы по этой песне:
  • Аккорды и текст

Страница создана 11.06.2012
http://primanota.ru/katatonia/gateways-of-bereavement-chords.htm
Привет, Гость.
Предлагаем пройти революционный курс по гитаре.
Подарок от PrimaNota.Ru, забирай!